Song name
# A B C D E F G H I J K L M N O P Q R S T U V W X Y Z

Dave Novini - Califnornia Gigolo tab

California Gigolo By Dave Novini

Dropped D Tuning

Main Riff
E------------------------------------------|
B------------------------------------------|
G------------------------------------------|
D-----4-4-4-4-4-4-------4-4-4-4-4-4--------|
A-----2-2-2-2-2-2--0-2--2-2-2-2-2-2--3-2---|
D------------------0-2---------------3-2---|

Outro
E-----------------------------------------------|
B-----------------------------------------------|
G-----------------------------------------------|
D-----------------------------------------------|
A--------9----10--------7----8--------5---6---0-|
D---9-9-----9----9--7-7----7---7--5-5---5---5-0-|
Tap to rate this tab
# A B C D E F G H I J K L M N O P Q R S T U V W X Y Z