Song name
# A B C D E F G H I J K L M N O P Q R S T U V W X Y Z

Dave Sharman - Fathers Garden tab

Title: Fathers Garden
Artist: Dave Sharman
Standard Tuning

h = hammer on
p = pull off
/ = slide
b = bend

This is one weird acoustic hes playing. My bets is hes playing an electric-acoustic with 
gain on it, but it sounds good. I pretty sure this is correct, but you never know.

Part 1

E|------------2-------||
B|--------------------||
G|-------4-3-----3-4-3||    x8
D|--------------------||
A|--4-4---------------||
E|--------------------||

Part 2

E|--------------------|----------------------||
B|-------------4------|---------------4------||
G|--------4-6-----6-6-|----------4-6-----6-6-||
D|-----4--------------|-------4--------------||    x4
A|--6-----------------|----6-----------------||
E|--------------------|-9--------------------||

E|------------2-------||
B|--------------------||
G|-------4-3-----3-4-3||    x4
D|--------------------||
A|--4-4---------------||
E|--------------------||

Part 3

This is where it gets tricky.

E|--------------------|----------------------||
B|-------------4------|---------------4------||
G|--------4-6-----6-6-|----------4-6-----6-6-||
D|-----4--------------|-------4--------------||    x4
A|--6-----------------|----6-----------------||
E|--------------------|-9--------------------||

E|----------------------||
B|---------------4------||
G|----------4-6-----6-6-||
D|-------4--------------||    x2
A|----6-----------------||
E|-4--------------------||

E|----------------------||
B|---------------4------||
G|----------4-6-----6-6-||
D|-------4--------------||    x2
A|----6-----------------||
E|-2--------------------||

E|----------------------||
B|---------------4------||
G|----------4-6-----6-6-||
D|-------4--------------||    x2
A|----6-----------------||
E|-0--------------------||

E|----------------------||
B|---------------4------||
G|----------4-6-----6-6-||
D|-------4--------------||    x4
A|----6-----------------||
E|-9--------------------||
Tap to rate this tab
# A B C D E F G H I J K L M N O P Q R S T U V W X Y Z