Song name
# A B C D E F G H I J K L M N O P Q R S T U V W X Y Z

Dave Thomas Junior - Lake Geneva chords

Highlighted       Show chord diagrams
-------------------------------------------------------------------------------
                             LAKE GENEVA - Dave Thomas Junior
-------------------------------------------------------------------------------
Tabbed by: Dave Thomas Junior
Email: davethomasjunior@gmail.com

Tuning: Standard

Main Riff: (once round - keep looping for verses)

e|--0---0-------0---------------------------------------------------------|
B|---4---4--2----4--------------------------------------------------------|
G|-4---4---4-4-1----------------------------------------------------------|
D|6---6---4---2-----------------------------------------------------------|
A|------------------------------------------------------------------------|
E|------------------------------------------------------------------------|


Rise / Chorus chords:

| C#m7 | F#7/11 | C#m7 | F#7/11 |
| C#m7 | F#7/11 | E    | Emaj7 sus2/B |


Outro

| Emaj7sus2/B | E | C#m | F#7/11 | 
| Emaj7sus2/B | E | C#m | F#7/11 |
| Emaj7sus2/B | E | C#m | F#7/11 | 
| Emaj7sus2/B | E | C#m | F#7/11 | E | E |
| Emaj7sus2/B | E | C#m | F#7/11 | E | E | Emaj7sus2/B |

     C#m7                F#7/11               E            Emaj7 sus2/B           C#m
 ===========          ===========        ===========       ===========        ===========
 x * | | | |<-4th     | | | | | |        | | | * | |  7th->* | | | | |  4th-> x * | | | |
 | | | | | |          * | | | | |        | * * | | |       | | | * | |        | | | | * |
 | | * * | |          | | | * | |        | | | | | |       | * * | | |        | | * * | |
 | | | | | |          | * * | | |        | | | | | |       | | | | | |        | | | | | |
Tap to rate this tab
# A B C D E F G H I J K L M N O P Q R S T U V W X Y Z