Song name
# A B C D E F G H I J K L M N O P Q R S T U V W X Y Z

Dave Van Ronk - Green Green Rocky Road tab

SWIFT GUITAR LESSONS
Green, Green Rocky Road
Capo 4th fret - Drop D Tuning

Verses

E|----------------|------2---------|----------------|--0-------------|
B|--0---3---0-----|3-3-------------|--0---3---0-----|3-----3---------|
G|2---------------|----------------|2---------------|----------------|
D|----0-------0---|----0-------0---|----0-------0---|----0-------0---|  (REPEAT)
A|----------------|----------------|----------------|----------------|
D|0-------0-------|0-------0-------|0-------0-------|5-------0-------|

Fill						Chorus Part 1						

E|--0-----2-------|--2-----     |---5---5---5---|--3-3----2-----| 
B|--3-----3-------|--3-----     |-3/7---7---7---|--3-3----3-----|
G|--2-------------|--------     |---------------|--4-4----------|
D|----0-------0---|----0---     |-----0-------0-|------0-----0--|
A|----------------|--------     |---------------|---------------|
D|0-------0-------|0-------     |-0-------0-----|--5------0-----|					

Short Fill

E|--0-----2--
B|--3-----3--
G|--2--------
D|----0------
A|-----------
D|0-------0-

Chorus, Part 2               		Verse B Section - Tell me who you love

E|---2s5--3-----2-|  |----2-----0----2-| |-------0---2----|--------0---------|
B|--------0-----3-|  |----3-----3----3-| |---0h3----------|---0--3-----3-----|
G|---2-5----------|  |-----------------| |-2--------------|-2--------0-------|
D|---0--------0---|  |--0---------0----| |-0-------0------|-0----------------|
A|----------------|  |-----------------| |----------------|------------------|
D|--------5-----0-|  |-------0---------| |-----0-------0--|------5-------0---|
Tap to rate this tab
# A B C D E F G H I J K L M N O P Q R S T U V W X Y Z