Song name
# A B C D E F G H I J K L M N O P Q R S T U V W X Y Z

Davenport Cabinet - Demon Fire tab

e|--------------------------------------------------|
B|-----1---1-------1---1-------1---1-------1---1----|
G|-----0---0-------0---0-------2---2-------2---2----|
D|---2---2---2---2---2---2---2---2---2---2---2---2--|
A|-3-----------3-----------0-----------0------------|
E|--------------------------------------------------|

e|--------------------------------------------------|
B|-----0---0-------0---0-------1---1-------1---1----|
G|-----0---0-------0---0-------2---2-------2---2----|
D|-------2---2-------2---2-------2---2-------2---2--|
A|---2-----------2-----------3-----------3----------|
E|-0-----------0-----------1-----------1------------|
Tap to rate this tab
# A B C D E F G H I J K L M N O P Q R S T U V W X Y Z