Song name
# A B C D E F G H I J K L M N O P Q R S T U V W X Y Z

Davi Sacer - As Margens Do Teu Rio tab

As Margens do Teu Rio
Davi Sacer

Tom: A
                
Intro 2x:  F#m D9 A E

F#m        D9          A            E
Me dá Teus , conselhos, eu não quero errar outra vez
F#m        D9           A               E
Não quero , deter-me no caminho que só mal me fez
Bm    F#m      D               E
Prefiro , Tua casa , onde eu me assento Contigo
Bm       F#m    D          E             F#m  D9  A  E
Distante , da roda , que se assentam os meus , inimigos

F#m      D9         A            E
Embora , eu sinta , os desejos que são naturais
F#m      D9       A            E
Andando ,contigo, Tua vontade é o que me atraiDm
D         A9     Bm7       A/C#
Só venço, só vivo, porque tenho raízes em Ti
F#m      E            D9
Assim o mal não vai me consumir

F#m          D9            A         E
Meu endereço é as margens do Teu Rio, Ó Senhor!
F#m          D9            A         E
Ali eu cresço, permaneço e vivo as estações do amor
      F#m        D9        A         E
Quero ser bem aventurado, meditar na Tua lei
       Bm7  A/C#          D      E            F#m D9 A E
Não saio daqui, as margens do Teu Rio prosperarei

Solo: F#m D9 A E (3x)
      Bm7 A/C# D E

E|-------------------------------------------------------------------------------------------|
B|-------------------------------------------------------------------------------------------|
G|---------------9h11--9/11---13-13b14----rb13-11\9-9--11------------------------------------|
D|-9b11--9/11----------------------------------------------------9/11------------------------|
A|-------------------------------------------------------------------------------------------|
E|-------------------------------------------------------------------------------------------|

E|-------------------------------------------------------------------------------------------|
B|--------------------------10----12b14----t15---14rb12-12p10-10h12-10/12--------------------|
G|--------9--11--9/11----9-----9-------------------------------------------------------------|
D|---/11-------------------------------------------------------------------------------------|
A|-------------------------------------------------------------------------------------------|
E|-------------------------------------------------------------------------------------------|

E|---------------------------------------------------12------14--16-16h17-16-14-----12h14-12-|
B|-12h14-12-\10------10h12p10--------12h14------14--------------------------14---------------|
G|------------------11---------------11------------------------------------------------------|
D|-------------------------------------------------------------------------------------------|
A|-------------------------------------------------------------------------------------------|
E|-------------------------------------------------------------------------------------------|

E|--17p16-14-----------------------12--------------------------------------------------------|
B|-------------14--12--10--12b14-----14rb12p10-----------------------------------------------|
G|-----------------------------------------------------11-9-------------------9/11~----------|
D|-----------------------------------------------------------11--9------9-11-----------------|
A|-------------------------------------------------------------------12----------------------|
E|-------------------------------------------------------------------------------------------|
Tap to rate this tab
 
# A B C D E F G H I J K L M N O P Q R S T U V W X Y Z