David Bazan - Virginia tab

verse

e|---------------------------------------------------------|
B|---------------------------------------------------------|
G|---------------------------------------------------------|
D|----7----7----7--5----5----5--5----5----5--5----5----5---|
A|----5----5----5--7----7----7--2----2----2--4----4----4---|
E|------5-5--5-5--5--5-5--5-5--5--5-5--5-5--5--5-5--5-5--5-|

chorus

e|---------------------------------------------------------|
B|---------------------------------------------------------|
G|---------------------------------------------------------|
D|----5----5----5--5----5----5--7----7----7--5----5----5---|
A|----2----2----2--4----4----4--5----5----5--2----2----2---|
E|------5-5--5-5--5--5-5--5-5--5--5-5--5-5--5--5-5--5-5--5-|
Tap to rate this tab
 
# A B C D E F G H I J K L M N O P Q R S T U V W X Y Z