Song name
# A B C D E F G H I J K L M N O P Q R S T U V W X Y Z

David Bazan - Wolves At The Door tab

the guitar part is the same for the whole song except for when he pick some of the
same notes a couple time, but you guys can pick that part out pretty easy

e--------------------------------------------------|
b--8-8--6-6--5-5--3-3--3-3--5-5------5-5--6-6------|
g--7-7--7-7--7-7--2-2--2-2--2-2------2-2--3-3------|
d-0---0----0---------0----0-------------0----------|
a--------------------------------------------------|
e--------------------------------------------------|

then at the end of the song he plays this
e-----------------------------|
b--8-8--6-6--5-5--3-3--6-6----|
g--7-7--7-7--7-7--2-2--7-7----|
d-0---0----0---------0--------|
a-----------------------------|
e-----------------------------|
pretty simple song, thanks for checking it out.
Tap to rate this tab
# A B C D E F G H I J K L M N O P Q R S T U V W X Y Z