Song name
# A B C D E F G H I J K L M N O P Q R S T U V W X Y Z

David Bazan - Virginia tab

Verse

e|--------------------------------------------------------------------|
B|--------------------------------------------------------------------|
G|--------------------------------------------------------------------|
D|---9-----9-----9---7-----7-----7---7-----7-----7---7-----7-----7----|
A|---7-----7-----7---9-----9-----9---7-----7-----7---9-----9-----9----|
E|-----7-7---7-7---7---7-7---7-7---7---7-7---7-7---7---7-7---7-7---7--|

Chorus

e|--------------------------------------------------------------------|
B|--------------------------------------------------------------------|
G|--------------------------------------------------------------------|
D|---7-----7-----7---7------7-----7---9-----9-----9---7-----7-----7---|
A|---7-----7-----7---9------9-----9---7-----7-----7---7-----7-----7---|
E|-----7-7---7-7---7----7-7---7-7---7---7-7---7-7---7---7-7---7-7---7-|


Virginia I had a dream that you invited us over
You still lived on the street where you laid down for good
We all sat on the floor as my kids swam around us
You smoked cigarettes like I knew you would

We were worried about your personal salvation
Was it heaven or hell that you saw when your eyes closed?
You smiled at us, floating high above the question
Like you knew something we didn't know

Virginia I had a dream we were closer than brothers
Singing, pictures of you, crashing cars, skipping school
We drove all over town as the days blurred around us
We wore out your cassettes, we were nobody's fool

They were worried about our high school graduation
They read us a poem, "Oh the Places You'll Go"
You smiled it off, floating high above the question
Like you knew something they didn't know




i'm not absolutely sure, but it sounds quite right.
great artist, great song.
hope you can enjoy it.
Tap to rate this tab
 
# A B C D E F G H I J K L M N O P Q R S T U V W X Y Z