Song name
# A B C D E F G H I J K L M N O P Q R S T U V W X Y Z

David Berkeley - Fire Sign tab

---------------------------------------------------------------------------
                             Fire Sign Ė David Berkeley
---------------------------------------------------------------------------
Artist: David Berkeley
Song: Fire Sign
Album: After the Wrecking Ships
Tuning note: Standart

To all David Berkeley fans this ďFire SignĒ tab is 100% correct!!! Greetings from 
Dortmund (Germany) D: -Marco


Intro / Verse I
e|------------------------------------------------------------------------|
B|------------------------------------------------------------------------|
G|-------0-2---0--------0-------------2-0---2--------0-0-----0------------|
D|-----3-----3-------3-------3------0-----0---0---------------------------|
A|----------------1--------1---1------------------3-------3-----3---------|
E|--1---------------------------------------------------------------------|


Chords
         D2   Fmaj7      C  F  Bb       C  Gm
e|--------0-----0---------0--1--1--------X---3----------------------------|
B|--------3-----1---------1--1--3--------X---3----------------------------|
G|--------2-----2---------0--2--3--------X---3----------------------------|
D|--------0-----3---------2--3--3--------2---5----------------------------|
A|--------X-----X---------3--3--1--------3---5----------------------------|
E|--------X-----X---------0--1-----------X---3----------------------------|


E-Guitar Part:
e|------------------------------------------------------------------------|
B|---------------------------------------------------------1--------------|
G|---------0-------------------0-----------------------2-------2----------|
D|------7--------7----------5---------0----------------3-----------2------|
A|---5--------5----------3---------3-------------------3-----------3------|
E|-----------------------------------------------------1------------------|





Fire Sign

Should have told me. 
Seemed like an ordinary day. 
Everything seemed to be okay. 

Did it hurt you? 
These are the scars you never show. 
She is a fire sign, you know.
One day you're near and then you go.  

Here is a looking glass what do you see? 
There is nothing there but me. 
Oh, in the aftermath, 
itís hard to breath and harder to believe   

They deceive you. 
There was a wall you had to find. 
The echoes in your mind. 

You'll surrender. 
And these are the lessons that you learn. 
Nobody hears, no one's concerned. 
One days its clear and then you burn.

Here is a photograph what do you see? 
Sorry itís just me.  
Oh, in the aftermath, 
itís hard to breath and harder to believe.    

Even just a sound 
and all your cards are down. 
Even just a sound. 
Let me lie you down. 
Don't have to make a sound. 
I would lie you down.  

It surrounds you. 
Sometimes it's easy to believe 
Sometimes it hurts more then it seems  

Now it's over. 
These are the scars you never show 
There was a warning sign, you know.  

One day your near and then you go x3


-thatís all folks!!!






| /  slide up
| \  slide down
| h  hammer-on
| p  pull-off
| ~  vibrato
| +  harmonic
| x  Mute note
==========================================================================
(p.s.: I uploaded this from my account, because the owner had some problems 
uploading it from his country)
Tap to rate this tab
# A B C D E F G H I J K L M N O P Q R S T U V W X Y Z