Song name
# A B C D E F G H I J K L M N O P Q R S T U V W X Y Z

David Bowie - The Man Who Sold The World tab

Listen to the record for timing.

e|------------------------------------------------|
B|------------------------------------------------|
G|------------------------------------------------|
D|-7--7--7--5--7/8\7--7--7--7--7--5--7/8\7--5--7--| Repeat Six Times
A|------------------------------------------------|
E|------------------------------------------------|
(The "5--7" at the end of the second one is to be played on the last time)

Verse Chords:
A-Dm-A-F-C-A-Dm-C (Each one last two measures, equaling sixteen measures)

Chorus:
e|------------------------------------------------------------------|
B|------------------------------------------------------------------|
G|------------------2--3--5-----------------------------------------|
D|--------2--3--5-------------------------------0--2--3------3------| Repeat Twice
A|-3--5-------------------------------0--1--3-------------4------4--|
E|------------------------------1--3--------------------------------|

Solo:
e|-----------------------------------------------------------------------------|
B|-----------------------------------------------------------------------------|
G|-----------------------------------------------------------------------------|
D|--7--7--7--5--7/8\7--5--7--7--7--5--7/13--9/10--10/9--9--9--9----------------|
A|-----------------------------------------------------------------------------|
E|-----------------------------------------------------------------------------|

e|-----------------------------------------------------------------------------|
B|-----------------------------------------------------------------------------|
G|--9----------------------------------------------4/10--10--10--10--10--------|
D|------7--7--7--5--7/8\7--5--7--7--7--5--7------------------------------------|
A|-----------------------------------------------------------------------------|
E|-----------------------------------------------------------------------------|

e|-----------------------------------------------------------------------------|
B|-----------------------------------------------------------------------------|
G|--10--10--10--10--10/9--9/7--7--7--7--7--7--7--7--7--7/9--9--9---------------|
D|-----------------------------------------------------------------------------|
A|-----------------------------------------------------------------------------|
E|-----------------------------------------------------------------------------|

e|-----------------------------------------------------------------------------|
B|-----------------------------------------------------------------------------|
G|--9--9--9--9--9--9--9--9-----------------------------------------------------|
D|------------------------------7--7--7--5--7/8\7--5--7--7--7--5--5------------|
A|-----------------------------------------------------------------------------|
E|-----------------------------------------------------------------------------|

e|-----------------------------------------------------------------------------|
B|-----------------------------------------------------------------------------|
G|-----------------------------------------------------------------------------|
D|-7/15--15--15--15--15--15--15--15--15--15--15--15\14--14\12------------------|
A|-----------------------------------------------------------------------------|
E|-----------------------------------------------------------------------------|

e|-----------------------------------------------------------------------------|
B|-----------------------------------------------------------------------------|
G|-----------------------------------------------------------------------------|
D|-12--12--12--12--12--12--12--12/13/14--14--14--14--14--14--------------------|
A|-----------------------------------------------------------------------------|
E|-----------------------------------------------------------------------------|

e|-----------------------------------------------------------------------------|
B|-----------------------------------------------------------------------------|
G|-14--14--14--14--------------------------------------------------------------|
D|-----------------------------------------------------------------------------|
A|-----------------------------------------------------------------------------|
E|-----------------------------------------------------------------------------|

Then repeat Riff 1 (Intro) once, and then again with the last two notes.
Tap to rate this tab
# A B C D E F G H I J K L M N O P Q R S T U V W X Y Z