Guitaretab - guitar tabs
Song name
# A B C D E F G H I J K L M N O P Q R S T U V W X Y Z

David Bowie - Suffragette City tab

----------------------------------------------------------------------------
			Suffragette City - David Bowie
----------------------------------------------------------------------------

Tabbed by: Tek

There's a pretty decent solo tab already out there,
so there's not much point in me tabbing it. Here's the song:

Tuning: Standard

Intro:-

e|----------------|
B|----------------|
G|----------------|
D|-/7--7--7--7--7-|
A|-/7--7--7--7--7-|
E|1/5--5--5--5--5-|


e|-------------------------------------------------------------------|
B|-------------------------------------------------------------------|
G|-------------------------------------------------------------------|
D|--2---2-4--2-4--2---2--2-4--2-4--2---2--2-4--2-4--2---2--2-4--2-4--|
A|--0---0-0--0-0--0---0--0-0--0-0--0---0--0-0--0-0--0---0--0-0--0-0--|
E|1/-----------------------------------------------------------------| 

Verse 1:-

e|-------------------------------------------------------------|
B|-------------------------------------------------------------|
G|----------------2-2-2-2---4-4-----------------2-2-2-2---4-4--|
D|--2-2-4--2-4----3-3-3-3---5-5---2-2-2--2-4----3-3-3-3---5-5--|
A|--0-0-0--0-0----3-3-3-3---5-5---0-0-0--0-0----3-3-3-3---5-5--|
E|-------------xx-1-1-1-1---3-3--------------xx-1-1-1-1---3-3--|

e|------------------------------------------------|
B|------------------------------------------------|
G|----------------4-4--4---5-5--5------2-2---4-4--|
D|--2-2-4--2-4----4-4--4---5-5--5------3-3---5-5--|
A|--0-0-0--0-0----2-2--2---3-3--3------3-3---5-5--|
E|-------------xx-------------------xx-1-1---3-3--|

e|-------------------------------------------------------------|
B|-------------------------------------------------------------|
G|----------------2-2-2-2---4-4-----------------2-2-2-2---4-4--|
D|--2-2-4--2-4----3-3-3-3---5-5---2-2-2--2-4----3-3-3-3---5-5--|
A|--0-0-0--0-0----3-3-3-3---5-5---0-0-0--0-0----3-3-3-3---5-5--|
E|-------------xx-1-1-1-1---3-3--------------xx-1-1-1-1---3-3--|

e|------------------------------------------------|
B|------------------------------------------------|
G|----------------4-4--4---5-5--5------2-2---4-4--|
D|--2-2-4--2-4----4-4--4---5-5--5------3-3---5-5--|
A|--0-0-0--0-0----2-2--2---3-3--3------3-3---5-5--|
E|-------------xx-------------------xx-1-1---3-3--|

Chorus:-

e|---------------------------------------------------------------------|
B|---------------------------------------------------------------------|
G|----------------------------10-10----------12-12-12-12-12-12-12-12---|
D|--2-2-4--2-4---7-7-9--7-9---10-10--10-10---12-12-12-12-12-12-12-12---|
A|--0-0-0--0-0---5-5-5--5-5---8--8---10-10---10-10-10-10-10-10-10-10---|
E|-----------------------------------8--8------------------------------|

e|---------------------------------------------------------------------|
B|---------------------------------------------------------------------|
G|----------------------------10-10----------12-12-12-12-12-12-12-12---|
D|--2-2-4--2-4---7-7-9--7-9---10-10--10-10---12-12-12-12-12-12-12-12---|
A|--0-0-0--0-0---5-5-5--5-5---8--8---10-10---10-10-10-10-10-10-10-10---|
E|-----------------------------------8--8------------------------------|

Pre-Verse 2:-

e|--------------|
B|--------------|
G|--------------|
D|--7-7-7-7-7---|
A|--7-7-7-7-7---|
E|--5-5-5-5-5---|

e|-------------------------------------------------------------------|
B|-------------------------------------------------------------------|
G|-------------------------------------------------------------------|
D|--2---2-4--2-4--2---2--2-4--2-4--2---2--2-4--2-4--2---2--2-4--2-4--|
A|--0---0-0--0-0--0---0--0-0--0-0--0---0--0-0--0-0--0---0--0-0--0-0--|
E|-------------------------------------------------------------------|

Verse 2:-

e|-------------------------------------------------------------|
B|-------------------------------------------------------------|
G|----------------2-2-2-2---4-4-----------------2-2-2-2---4-4--|
D|--2-2-4--2-4----3-3-3-3---5-5---2-2-2--2-4----3-3-3-3---5-5--|
A|--0-0-0--0-0----3-3-3-3---5-5---0-0-0--0-0----3-3-3-3---5-5--|
E|-------------xx-1-1-1-1---3-3--------------xx-1-1-1-1---3-3--|
[ Tab from: http://www.guitaretab.com/d/david-bowie/122758.html ]
e|------------------------------------------------|
B|------------------------------------------------|
G|----------------4-4--4---5-5--5------2-2---4-4--|
D|--2-2-4--2-4----4-4--4---5-5--5------3-3---5-5--|
A|--0-0-0--0-0----2-2--2---3-3--3------3-3---5-5--|
E|-------------xx-------------------xx-1-1---3-3--|

Chorus:

e|---------------------------------------------------------------------|
B|---------------------------------------------------------------------|
G|----------------------------10-10----------12-12-12-12-12-12-12-12---|
D|--2-2-4--2-4---7-7-9--7-9---10-10--10-10---12-12-12-12-12-12-12-12---|
A|--0-0-0--0-0---5-5-5--5-5---8--8---10-10---10-10-10-10-10-10-10-10---|
E|-----------------------------------8--8------------------------------|

e|---------------------------------------------------------------------|
B|---------------------------------------------------------------------|
G|----------------------------10-10----------12-12-12-12-12-12-12-12---|
D|--2-2-4--2-4---7-7-9--7-9---10-10--10-10---12-12-12-12-12-12-12-12---|
A|--0-0-0--0-0---5-5-5--5-5---8--8---10-10---10-10-10-10-10-10-10-10---|
E|-----------------------------------8--8------------------------------|

Pre-Solo:

e|--------------|
B|--------------|
G|--------------|
D|--7-7-7-7-7---|
A|--7-7-7-7-7---|
E|--5-5-5-5-5---|

*Solo*
[See solo tab version 1 on this site, decent tab]

Chorus:-

e|---------------------------------------------------------------------|
B|---------------------------------------------------------------------|
G|----------------------------10-10----------12-12-12-12-12-12-12-12---|
D|--2-2-4--2-4---7-7-9--7-9---10-10--10-10---12-12-12-12-12-12-12-12---|
A|--0-0-0--0-0---5-5-5--5-5---8--8---10-10---10-10-10-10-10-10-10-10---|
E|-----------------------------------8--8------------------------------|

e|---------------------------------------------------------------------|
B|---------------------------------------------------------------------|
G|----------------------------10-10----------12-12-12-12-12-12-12-12---|
D|--2-2-4--2-4---7-7-9--7-9---10-10--10-10---12-12-12-12-12-12-12-12---|
A|--0-0-0--0-0---5-5-5--5-5---8--8---10-10---10-10-10-10-10-10-10-10---|
E|-----------------------------------8--8------------------------------|

e|---------------------------------------------------------------------|
B|---------------------------------------------------------------------|
G|----------------------------10-10----------12-12-12-12-12-12-12-12---|
D|--2-2-4--2-4---7-7-9--7-9---10-10--10-10---12-12-12-12-12-12-12-12---|
A|--0-0-0--0-0---5-5-5--5-5---8--8---10-10---10-10-10-10-10-10-10-10---|
E|-----------------------------------8--8------------------------------|

e|---------------------------------------------------------------------|
B|---------------------------------------------------------------------|
G|----------------------------10-10----------12-12-12-12-12-12-12-12---|
D|--2-2-4--2-4---7-7-9--7-9---10-10--10-10---12-12-12-12-12-12-12-12---|
A|--0-0-0--0-0---5-5-5--5-5---8--8---10-10---10-10-10-10-10-10-10-10---|
E|-----------------------------------8--8------------------------------|

Pre-Bridge:-

e|--------------|
B|--------------|
G|--------------|
D|--7-7-7-7-7---|
A|--7-7-7-7-7---|
E|--5-5-5-5-5---|

Bridge:-


e|----------------------------------|
B|----------------------------------|
G|----------------2-2-2-2-2-2-2-2---|
D|--2-2-4--2-4----3-3-3-3-3-3-3-3---|  X8
A|--0-0-0--0-0----3-3-3-3-3-3-3-3---|
E|-------------xx-1-1-1-1-1-1-1-1---|

e|-------------------------------------------------0---|
B|--------------------------0-0-0-0-0-0-0-0-0-0-0--0---|
G|----------1-1-1-1-1-1-1-1-1-1-1-1-1-1-1-1-1-1-1--1---|
D|--2-2-2-2-2-2-2-2-2-2-2-2-2-2-2-2-2-2-2-2-2-2-2--2---|
A|--2-2-2-2-2-2-2-2-2-2-2-2-2-2-2-2-2-2-2-2-2-2-2--2---|
E|--0-0-0-0-0-0-0-0-0-0-0-0-0-0-0-0-0-0-0-0-0-0-0--0---|

Outro:-

e|----------------------------------|
B|----------------------------------|
G|----------------2-2-2-2-2-2-2-2---|
D|--2-2-4--2-4----3-3-3-3-3-3-3-3---|  X8
A|--0-0-0--0-0----3-3-3-3-3-3-3-3---|
E|-------------xx-1-1-1-1-1-1-1-1---|

e|-------------------------------------------------0---|
B|--------------------------0-0-0-0-0-0-0-0-0-0-0--0---|
G|----------1-1-1-1-1-1-1-1-1-1-1-1-1-1-1-1-1-1-1--1---|
D|--2-2-2-2-2-2-2-2-2-2-2-2-2-2-2-2-2-2-2-2-2-2-2--2---|
A|--2-2-2-2-2-2-2-2-2-2-2-2-2-2-2-2-2-2-2-2-2-2-2--2---|
E|--0-0-0-0-0-0-0-0-0-0-0-0-0-0-0-0-0-0-0-0-0-0-0--0---|


*END*

Enjoy =]
Related for Suffragette City tab
Advertisement will be closed in 10 seconds