Song name
# A B C D E F G H I J K L M N O P Q R S T U V W X Y Z

David Bowie - V-2 Schneider tab

Help us improve GuitareTab! Take a short survey!
V2 Schneider- David Bowie ////album Heroes(1977)

________________________________________________
| "V-2 Schneider" is a largely instrumental piece
written by David Bowie in 1977 for the album "Heroes".|
| It was a tribute to Florian Schneider, co-founder of the
band Kraftwerk, | whom Bowie acknowledged as a
significant influence at the time.
|The title also referenced the V-2 rocket.
|
|The only words sung are those in the title,
 initially distorted by phasing.
|_________________________________

soundscape intro

bass /////////part 1
|---------------------------------|
|-5-------3----5--5---------------|   repeat few times
|-------5-------------------------|
|------------------------3---3----|

_/_/_/_/_/_/_//_/_/_/_/_/_/_/_/_/_/_/_/_/_/_/_/_/_/_/

bass ////////part 2
|-------------------------------------------------------------|
|---5555---3333---222222---111111-----------------------------|
|-------------------------------------------------------------|
|-------------------------------------------------------------|

Guitar with fat flanger(or sax)/////////////

|-----------------------------|
|-----------------------------|
|----4----2---1---0-----------|
|----5----3---2---1-----------|
|----5----3---2---1-----------|
|----3----1---0---------------|

Second guitar (or sax) soloin

|---------------------------------------------------------------|
|---------------------------------------------------------------|
|---------5-4--------5-4-------5-4------------------------------|
|--5-5---------5-5--------5-5----------5-5---3---5--------------|
|---------------------------------------------------------------|
|---------------------------------------------------------------|

_/_/_/_/_/_/_/_/_/_/_/_/_/_/_/_/_/_/_/_/_/_/_


bass /////////part 3 (same as first) and repeat
this two partitures...or put smth in it :)
|---------------------------------|
|-5-------3----5------------------|
|-------5-------------------------|
|------------------------3--------|

solo improvisations etc......
also look
http://www.youtube.com/watch?v=y_8I8BVG_vM
Related for V-2 Schneider tab