Song name
# A B C D E F G H I J K L M N O P Q R S T U V W X Y Z

David Bowie - Fame tab

-------------------------------------------------------------------------------
			     FAME - David Bowie
-------------------------------------------------------------------------------
Tabbed by: ironmanben
Email: bentrooper@gmail.com

Tuning: All guitars (There are 3) e B G D A E

Intro:
e|-8--8-8p--------8-8--------------------10------------------|
B|--------11p9--------8-11-----------------------------------|
G|--------------8--------------------8h10---10-----------13--|
D|------------------------------------------------6-13h15--15|
A|---------------------------------------------6h8-----------|
E|-----------------------------------------------------------|
-|                                                      |
e|------------------------------------------------------|
B|------------------------------------------------------|
G|-10-----------8-------3-------------------------------|
D|-10-----------8-------3-------------------------------|
A|-8------------6-------1-1-1-1-1-1-1-1-1-1-1-1-1-1-1-1-|
E|------------------------------------------------------|
-|                                                      |
e|------------------------------------------------------|
B|-10-------------------3-------------------------------|
G|-10-------------------3-------------------------------|
D|-10-------------------3-------------------------------|
A|------------------------------------------------------|
E|------------------------------------------------------|

Part 1:                                   | Part 2:
e|-------------------|--------------------|------------------|---------------|
B|-13^---------------|----------------13^-|------------------|---------------|
G|-13^-7-8-7-8-78--8-|---7-8-7-8-78-7-13^-|--7-8-7-8-78-7h8--|--7-8-7-8-78-7-|
D|-------------------|--------------------|------------------|---------------|
A|-------------------|--------------------|------------------|---------------|
E|-------------------|--------------------|------------------|---------------|

e|-------------------|--------------------|------------------|----------------|
B|-------------------|--------------------|------------------|----------------|
G|-------------------|----------------1^--|------------------|----------------|
D|-------------------|----------0h1-3-----|------------------|-----------3-0--|
A|-------------------|--------------------|------------------|----------------|
E|-1---------1-------|-1------------------|--------1---------|-1--------------|

e|-------------------|----8--8----------8-|-8------------8---|---------------|
B|-------------------|--------------------|----------9h10----|----------9h10-|
G|-------------------|--------------------|------------------|---------------|
D|-------------------|--------------------|------------------|---------------|
A|-------------------|--------------------|------------------|---------------|
E|-------------------|--------------------|------------------|---------------|


       | Part 3:                              |
e|-----|-----------|--------------------------|
B|-13^-|-6---------|-----------13^------------|
G|-13^-|----8-78-8-|-7-8--8-78-13^------------|
D|-----|-----------|--------------------------|
A|-----|-----------|--------------------------|
E|-----|-----------|--------------------------|
-|     |                                      |
e|-----|----1818181818181818------------------|
B|-----|----1717171717171717------------------|
G|-----|--------------------------------------|
D|-11--|--------------------------------------|
A|-----|--------------------------------------|
E|-----|--------------------------------------|
-|     |                                      |
e|-8-8-|-------------------------4/5-55\4-----|
B|-----|-------------------------3/4-44\3-3/4-|
G|-----|--------------------------------------|
D|-----|------/7-7-7-\3---6-7-----------------|
A|-----|---------------------8----------------|
E|-----|--------------------------------------|

Part 4:
e|---------------------------|
B|---------------------------|
G|-8---8~--8-7-8-8--7-8-7-8--|
D|---------------------------|
A|---------------------------|
E|---------------------------|
-|                           |
e|---------------------------|
B|---------------------------|
G|------------------------1^-|
D|------------------0h1-3----|
A|-1---1---1-----------------|
E|---------------------------|
-|                           |
e|-------4/5-----------------|
B|-------3/4-----------------|
G|---1-----------------------|
D|---------------------------|
A|---------------------------|
E|---------------------------|

Order:
Intro
Part 1
Part 2
Part 3 x4
Part 1 x4
Part 4
Part 1 x8
Part 4
Part 1 x4
Intro
Part 1 x2
Part 3 x4
Part 1 x4
Part 4
Part 1 keep repeating until fade out

There's a lot of improvistation on these riffs in this song.


| /  slide up
| \  slide down
| h  hammer-on
| p  pull-off
| ~  vibrato
| +  harmonic
| x  Mute note
===============================================================================
Tap to rate this tab
# A B C D E F G H I J K L M N O P Q R S T U V W X Y Z