Song name
# A B C D E F G H I J K L M N O P Q R S T U V W X Y Z

David Bowie - Ziggy Stardust tab

    This dude from youtube, FDguitarsnakepit, interpreted the solo.  I  commented his 
asking for the tab.
                       And guess what? He sent it!
You may be on of the many people looking for a tab of this solo.  Now, the search is over! Ha ha :)
Well this video of it is here: http://www.youtube.com/watch?v=HThnps-ONEw&feature=email
Yeah, well, he deserves a huge thanks from me, and everyone who views this tab.

Email he sent me:

Ziggy Stardust solo guitar hero

B= bend
~= Vibrato
/= Slide
P= pulloff
H= Hammeron


   Party with duets
E|-------10-------------------------------------------------------------------|
B|---10b----10---8~----10-8-10b~-----12-12-13~-----15-17b--17~----------------|
G|----------------------------------------------------------------------------|
D|----------------------------------------------------------------------------|
A|----------------------------------------------------------------------------|
E|----------------------------------------------------------------------------|

E|---------------------------------------------------------|
B|------------------------------------12-13---15b-----15b--|
G|-------------11-12-12b----14-12-14-----------------------|
D|---14-12-14----------------------------------------------|
A|---------------------------------------------------------|
E|---------------------------------------------------------|


  In this part no duets in the pentatonic scale in E minor improvising using always connected.

E|--12h15p12----12--------------------------------------------------------------|
B|-----------15----15p12----15p12-----12----------------------------------------|
G|-----------------------14--------14----14p12-----14p12----12------------------|
D|---------------------------------------------14--------14----14p12------------|
A|-------------------------------------------------------------------14---------|
E|-----------------------------------------------------------------------0------|

   Back with duets
E|-----------------------------------14-15--17--15-19--17--19-19b~--------|
B|------------------12~-13~----15-17--------------------------------------|
G|--12-14-16-12-14~-------------------------------------------------------|
D|------------------------------------------------------------------------|
A|------------------------------------------------------------------------|
E|------------------------------------------------------------------------|


   Without duets
E|------------------------------------------------------10-------------------------|
B|------------------------------------------------13b~-----13--10-----10-----------|
G|-----------------------------------------------------------------12----12b~------|
D|---------------------------------------------------------------------------------|
A|------7-----------5-------3-----3-----3------------------------------------------|
E|--5----------3--------1------0----1----------------------------------------------|
  Power chords (F5)               ( G5)                     (F5)

E|-----------------------------------------------------------------------|
B|-----------------------------------8-----------------------------------|
G|-------------------------------7b~----7---5----------------------------|
D|---------------------------------------------5/7-----------------------|
A|-----5-------3-----3---------------------------------------------------|
E|--3------1------0------------------------------------------------------|

          G5                   F5


E|-------------------------------------------------------14------15---------15--12~--------17~b---|
B|--------------------------------------13--------------------------------------------------------|
G|---------------------------------12b~----12-11~--10/12-----12-----12/14-----------14/16---------|
D|------------------------------------------------------------------------------------------------|
A|-----5-------3-----3----------------------------------------------------------------------------|
E|--3------1------0-------------------------------------------------------------------------------|


  Fabio Davi...
Tap to rate this tab
 
# A B C D E F G H I J K L M N O P Q R S T U V W X Y Z