Song name
# A B C D E F G H I J K L M N O P Q R S T U V W X Y Z

David Bowie - Life On Mars tab

DAVID BOWIE - Life On Mars?  Key of E

transcribed by burnleaf

/** This is my acoustic chord melody version of the original from Hunky Dory **/


E --------------------------------------------------------------------|
B --------0-------0-----0---0---2-----------2-----2---2-----2-4---0---|
G --1---2---1---2-----1---2-------4---------2---4-----2---4---4---2---|
D --2-------1-------0---------------3-------4---------2-------4---1---|
A ------------------------------4-----4-----4---------4-------2---2---|
E ------------------------------------------2---------2---------------|

E --0-----------------------------------------------------------------|
B --0-----0-------0-----0---0---2-----------2-----2---2-----2-4---0---|
G --1---2---1---2-----1---2-------4---------2---4-----2---4---4---2---|
D --2-------1-------0---------------3-------4---------2-------4---1---|
A --2---------------------------4-----4-----4---------4-------2---2---|
E --0---------------------------------------2---------2---------------|


E --3---------------------4---5---6-----5-----2-2---2-------0---0-----|
B --3---4---5---6-----5---5---5---5-----5-----3-3---2---2---0---0-----|
G --4---4---4---4-----5---5---5---5-----6-----2-2---2---2---1---0-----|
D --5---5---5---5-----5-----------------7-----0-0---4---3---2---2-----|
A --5-----------------3---3---3---3-----7-----------4---4---2---2-----|
E --3---3---3---3-----------------------5-----------2-------0---0-----|


E ------------2---5---5-----2-2---2-------0---0-----|
B ------------3---6---5-----3-3---2---2---0---0-----|
G ------------2---5---6-----2-2---2---2---1---0-----|
D --2-2-1-0---4---7---7-----0-0---4---3---2---2-----|
A ----------4-2---5---7-----------4---4---2---2-----|
E --------------------5-----------2-------0---0-----|


E ------------2---5---2-------2---2---0---0---0---0---0---0---0-2-3-|
B ------------3---6---2---2---2---4---0---1---2---3---2---1-0-------|
G ------------2---5---2---2---2---4---1---1---1---1---2---2---------|
D --2-2-1-0---4---7---4---3---2---4---2---2---2---2---2---2---------|
A ----------4-2---5---4---4---4---2---2---2---2---2---0---0---------|
E --------------------2-------2-------0---0---0---0-----------------|

E --4-----------------------------------------------------------------|
B --------0-------0-----0---0---2-----------2-----2---2-----2-4---0---|
G --4---2---1---2-----1---2-------4---------2---4-----2---4---4---2---|
D --1-------1-------0---------------3-------4---------2-------4---1---|
A ------------------------------4-----4-----4---------4-------2---2---|
E ------------------------------------------2---------2---------------|

...etc
Tap to rate this tab
 
# A B C D E F G H I J K L M N O P Q R S T U V W X Y Z