Song name
# A B C D E F G H I J K L M N O P Q R S T U V W X Y Z

David Bowie - Young Americans tab

this is the saxaphone intro when u play it on guitar. i worked this out by ear so 
if it sounds wrong to you then thts probably why. this is my first tab aswell, 
took me all night. :)

have to listen to the song to get the gaps between where the saxaphone plays correct.

e|--------------------------------------------|
b|--10-13-10-13~13b------13b-10-------10-13b--|
g|------------------------------12~-----------|
d|--------------------------------------------|
a|--------------------------------------------|
E|--------------------------------------------|

e|------------------------------|
b|--15b-13----------------------|
g|----------14-12\10-10h12-12b--|
d|------------------------------|
a|------------------------------|
E|------------------------------|

e|--------------------------|
b|-----------11-13-11--13b--|
g|-----10-12----------------|
d|--12----------------------|
a|--------------------------|
E|--------------------------|

e|-----------------------|
b|-----10-13-10--13~13b--|
g|--12-------------------|
d|-----------------------|
a|-----------------------|
E|-----------------------|

e|---------------|
b|--13b-10~~13b--|
g|---------------|
d|---------------|
a|---------------|
E|---------------|

e|------------------------|
b|--15b-13--11----11~13b--|
g|-------------12---------|
d|------------------------|
a|------------------------|
E|------------------------|

e|-----------------|
b|--13-11----------|
g|--------12~-12b--|
d|-----------------|
a|-----------------|
E|-----------------|

e|-------------------------------|
b|--11/13\11/13\11/13\11----11b--|
g|-----------------------12------|
d|-------------------------------|
a|-------------------------------|
E|-------------------------------|
Tap to rate this tab
 
# A B C D E F G H I J K L M N O P Q R S T U V W X Y Z