David Bowie - Modern Love tab

E|------------------------------------------------|
B|------------------------------------------------|
G|------------------------------------------------|
D|--2--------2/5--5--3--2--0------------2--5--2p0-|
A|----------------------------3/5----5------------|
E|------------------------------------------------|

E|--------------------------------------------|
B|--------------------------------------------|
G|--------------------------------------------|
D|------3--2--0-------------2--0--------------|
A|-3-------------3--5----5--------3--2--0-----|
E|--------------------------------------------|


E|--------------------------------------------------|
B|--------------------------------------------------|
G|--2-----------------------------------------5-----|
D|-----0/5----5b--5b--5b--5b5b--7--5--5b--5b-----5--|
A|--------------------------------------------------|
E|--------------------------------------------------|

By Jonatan kidron
Tap to rate this tab
 
# A B C D E F G H I J K L M N O P Q R S T U V W X Y Z