Song name
# A B C D E F G H I J K L M N O P Q R S T U V W X Y Z

David Bowie - Valentines Day tab

-------------------------------------------------------------------------------
                        Valentine's Day - David Bowie
-------------------------------------------------------------------------------
Tabbed by: lukeserious
E-mail: lukeserious666@gmail.com

Tuning: Standard (EADGBe)

Intro Chords:

     D    Hm   F#m                    A

e|--5----2----2---------|------------5----|
B|--7----3----2---------|------------5----|
G|--7----4----2---------|------------6----|
D|--7----4----4---------|------------7----|
A|--5----2----4---------|------------7----|
E|--x----x----2----2----|--3----4----5----|


Fill:
   
e|-----------------------------------------------------------------------------------|
B|-----------------------------------------------------------------------------------|
G|--7h---9----7----6-----------7h---9----7------6--------------7------7----6---------|
D|------------------------9--------------------------9----7---------------------7----|
A|-----------------------------------------------------------------------------------|
E|-----------------------------------------------------------------------------------| Repeat


It's just a small part of the song, feel free to improve this tab!
************************************

| /   slide up
| \   slide down
| h   hammer-on
| p   pull-off
| ~   vibrato
| +   harmonic
| x   Mute note
| b   Bend
| pb  Pre-bend
| br  Bend release
| pbr Pre-bend release
| brb Bend release bend

************************************
Tap to rate this tab
 
# A B C D E F G H I J K L M N O P Q R S T U V W X Y Z