Song name
# A B C D E F G H I J K L M N O P Q R S T U V W X Y Z

David Bowie - You Will Set The World On Fire tab

(You Will) Set The World On Fire
by David Bowie


Riff 1          X 4
-------------------------------------------|
-------------------------------------------|
-------------------------------------------|
-------9\7---------------------------------|
-------7\5--------7-7-9-10-----------------|
--0-0-------------5-5-7-8------------------|


Riff 2          X 4
-------------------------------------------|
-------------------------------------------|
------------------2--2--2------------------|
--2--2------------2--2--2------------------|
--2--2------------0--0--0------------------|
--0--0-------------------------------------|

Midnight in the Village
Seeger lights the candles
From Bitter End to Gaslight
Baez leaves the stage
Ochs takes notes
When the black girl and guitar
Burn together hot in rage
You've got what it takes

Riff 1a         X 2
-------------------------------------------|
-------------------------------------------|
-------------------------------------------|
-------------------------------------------|
-------7\5---------------------------------|
--0-0----------5-5-7-8---------------------|

You say too much

             [Chorus]~[barre chords]
   Em
Oh you will set the world babe
D                         C
You will set the world on fire
Em
I can work the scene babe
D                 C
I can see the magazines
Em
I can hear the nation
D                     C
I can hear the nation cry
Em
You will set the world babe
D                         Bb   Bbsus4
You will set the world on fire
                   C   Csus4
You will set it on fire

Riff 1a      X2

Riff 2       X4

Kennedy would kill. For the lines that you've written
Van Ronk says to Bobby 'she's the next real thing'
Crouched in the half light, screaming like a banshee
You're in the boat, babe, we're in the water

Riff 1a      X2

        [Chorus]

        Guitar solo

Solo:

----------------------------------------------|
-------------------------------5---5----------|
---7-5----7-5---7~~--777-7-5---5---5-7p5------|
-------7------7--------------7---7-------7----|
----------------------------------------------|
/---------------------------------------------|

----------------------------------------------|
--7-5-----7b9~--------10-----8------5---------|
--7-5---5-7b9~--------12b14--10b12--7b9-------|
------7---------------------------------------|
----------------------------------------------|
----------------------------------------------|

-----------------------------15-----15--------|
-10-----12-----13-----15-----15b17~~---15b17--|
-12b14--14b16--15b17--17b19-------------------|
----------------------------------------------|
----------------------------------------------|
----------------------------------------------|

        [Chorus] X2


        [final 2 bars]

Bb           C
----------------------------------------------|
----------------------------------------------|
----------------------------------------------|
---------------------------9-9-9-9------------|
----5--6--8-----7--8--10---7-7-7-7------------|
-6-----------8-------------0-0-0-0------------|


tabbed by reggaemaster21
Tap to rate this tab
# A B C D E F G H I J K L M N O P Q R S T U V W X Y Z