Song name
# A B C D E F G H I J K L M N O P Q R S T U V W X Y Z

David Bowie - Valentines Day tab

Opening guitar part
e|---------------------|-------------------------|
B|---------------------|-------------------------|
G|--------6-4----------|--------6-4--------------|
D|-----4------7-4-7----|-----4------7-4-7--7-8-9-|
A|-5-7-----------------|-5-7---------------------|
E|---------------------|-------------------------|

0:45                                         After 3rd repeat       
e|----------------------|-----------------|  --------------------|Entire
B|----------------------|-----------------|  -------------7---7--|Section
G|-7h9-7-6----7h9-7-6---|----7---7p6-7----|X3---7-6-7-6-7---7----|  X2
D|---------9----------9-|-7---------------|  -9------------------|
A|----------------------|-----------------|  --------------------|
E|----------------------|-----------------|  --------------------|

1:26
e|-----------9~---------9----|-----------9~--10~---|
B|-7-8-7-8-7------7-8-7---8~-|-7-8-7-8-7-----------|
G|---------------------------|---------------------|
D|---------------------------|---------------------|
A|---------------------------|---------------------|
E|---------------------------|---------------------|
Tap to rate this tab
# A B C D E F G H I J K L M N O P Q R S T U V W X Y Z