Song name
# A B C D E F G H I J K L M N O P Q R S T U V W X Y Z

David Brent - Equality Street tab

-------------------------------------------------------------------------------
                             EQUALITY STREET - Brent & Johnson
-------------------------------------------------------------------------------
Tabbed by: Emlyn Jones
E-mail: emlyn.jones0@googlemail.com

Tuning: Standard

David Brent's new song from Comic Relief 2013.

Intro:

e[------------------------|------------------------]
B[------------------------|------------------------]
G[13-13-13-13-13-13-16-16-|16-18-------------------] x 3
D[------------------------|------------------------]
A[11-11-11-11-11-11-14-14-|14-16-------------------]
E[------------------------|------------------------]

e[-------------------------]
B[-------------------------]
G[-13----------------------]
D[-------------------------]
A[-11----------------------]
E[-------------------------]

The rest of the song just follows one chord progression; with a ska-style pattern of 
playing on the second beat: [ 1, strum, 2, strum, 3 strum, 4 strum ] listening to the track 
should give you the idea. The chord sequence is:

[ G#m, G#m, B, C# ] x 3
[ F#, F#, F#, F# ]

And only the top 3 strings are played:


e[--4---4---7---9--|--4---4---7---9--|--4---4---7---9--|--2---2---2---2--]
B[--4---4---7---9--|--4---4---7---9--|--4---4---7---9--|--2---2---2---2--]
G[--4---4---8---10-|--4---4---8---10-|--4---4---8---10-|--2---2---2---2--]
D[-----------------|-----------------|-----------------|-----------------]
A[-----------------|-----------------|-----------------|-----------------]
E[-----------------|-----------------|-----------------|-----------------]

Biddly Biddly Bong Yo! Listening to the track will help with the timing.
Tap to rate this tab
 
# A B C D E F G H I J K L M N O P Q R S T U V W X Y Z