Song name
# A B C D E F G H I J K L M N O P Q R S T U V W X Y Z

David Choi - By My Side chords

Highlighted       Show chord diagrams
I figured I'd try to tab this one since there wasn't a tab for the introduction on UG.

Here's my try at the intro:

e|--------------------------5----------------------|
B|-2--4h5--4--5h7--5--------5----------------------|
G|-2-------4-------6--------6----------------------|
D|-2-------4-------6--------7----------------------|
A|-x-------x-------x--------7----------------------|
E|-2-------4-------6--------5----------------------|

The rest of the song:


Chords:

     E     B    G#m    A    F#m7   B7   C#m    Am
e|---0-----7-----4-----5-----0-----0-----4-----5----------------------------|
B|---0-----7-----4-----5-----0-----0-----5-----5----------------------------|
G|---9-----8-----4-----6-----2-----2-----6-----5----------------------------|
D|---9-----9-----6-----7-----2-----1-----6-----7----------------------------|
A|---7-----9-----6-----7-----x-----2-----4-----7----------------------------|
E|---0-----7-----4-----5-----2-----0-----x-----5----------------------------|

NOTE: You'll notice if you listen to the recording that, the first time David plays a 
chord, he focuses on the bass note(s). The rest of the times he will play more of the 
higher notes. Keep this in mind when you're picking this song.

Another NOTE: During the verse, it sounds like, instead of playing the top two strings 
of the B chord at the 7th fret for the verse, he mutes the B string and plays an open E 
string. He also sometimes does this same open string thing for the A chord of the verse.

E                         B
I'm just listenin' to the clock
                 G#m                      A
Go tickin', I am waiting as the time goes  by.

  E                       B
I think of you with every breath I take,
          G#m                         A       A  G#m
I need to feel your heartbeat next to  mine.

       F#m7  B7      F#m7 B7
You're all I see, in everything.

             E
I just wanna hold you
             G#m
I just wanna kiss you
             C#m                A
I just wanna love you all my life.

                    E
I normally wouldn't say this
                 G#m
But I just can't contain it
                   C#m
I want you here forever, right here
Am
By my side.

(Fill: E )

E                        B
All the fears you feel inside,
                            G#m
and all the tears you've cried,
                     A
they're ending right  here.
        E
I'll heal your heart and soul, I'll
B
Keep you all so close.
      G#m                       A     A  G#m
Don't worry; I'll never let you go.

       F#m7  B7           F#m7 B7
You're all I need, you're everything.

             E
I just wanna hold you
             G#m
I just wanna kiss you
             C#m                A
I just wanna love you all my life.

                    E
I normally wouldn't say this
                 G#m
But I just can't contain it
                   C#m
I want you here forever, right here
Am
By my side.

C#m
No one else would ever do
Abm
I got a stubborn heart for you
A
Call me crazy but it's true
B
I love you.

C#m
I didnt think that it would be,
Abm
You made it clear for me;
A            B*                    * do the open string thing from my "Another NOTE"
You're all I need.

             E
I just wanna hold you
             G#m
I just wanna kiss you
             C#m                A
I just wanna love you all my life.

                    E
I normally wouldn't say this
                 G#m
But I just can't contain it
                   C#m
I want you here forever, right here
Am
By my side.

E
Tap to rate this tab
 
# A B C D E F G H I J K L M N O P Q R S T U V W X Y Z