Song name
# A B C D E F G H I J K L M N O P Q R S T U V W X Y Z

David Choi - So Weightless tab

-----------------------------------------------------------------------------
			     So Weightless - David Choi
-----------------------------------------------------------------------------
Tabbed by: Waka Flocka Flame
Email:
Tuning: Standard

I'm 99% that this tab is 100%, haha! Leave comments for questions or corrections. Thanks!

Intro:
e|-----4-----0-----0-----0-----0-----0-----0-----0-----0-----|
B|-----4-----5-----4-----3-----2-----1-----0-----2-----4-----|
G|-----0-----5-----4-----3-----2-----2-----1-----2-----4-----|
D|-----6-----5-----4-----3-----2-----2-----2-----2-----4-----|
A|-----x-----x-----x-----x-----x-----x-----2-----x-----x-----|
E|-----x-----5-----4-----3-----2-----1-----0-----2-----4-----|

Verse: 
 Play 2x
e|-----4-----0-----0-----0-----0-----0-----0-----0-----0-----|
B|-----4-----5-----4-----3-----2-----1-----0-----2-----4-----|
G|-----0-----5-----4-----3-----2-----2-----1-----2-----4-----|
D|-----6-----5-----4-----3-----2-----2-----2-----2-----4-----|
A|-----x-----x-----x-----x-----x-----x-----2-----x-----x-----|
E|-----x-----5-----4-----3-----2-----1-----0-----2-----4-----|

Pre-Chorus:
e|-----0-----0-----0-----0-----0-----x-----0-----x-----|
B|-----7-----7-----5-----5-----4-----3-----2-----0-----|
G|-----7-----7-----5-----5-----4-----4-----2-----2-----|
D|-----7-----6-----5-----4-----4-----3-----2-----1-----|
A|-----x-----7-----x-----5-----x-----4-----x-----2-----|
E|-----7-----0-----5-----0-----4-----x-----2-----x-----|

Chorus:
 Play 2X
e|-----0-----0-----0-----0-----0-----|
B|-----0-----7-----7-----5-----5-----|
G|-----8-----7-----7-----5-----5-----|
D|-----9-----7-----6-----5-----4-----|
A|-----7-----x-----7-----x-----5-----|
E|-----0-----7-----0-----5-----0-----|

Verse: 
 Play 2X
e|-----4-----0-----0-----0-----0-----0-----0-----0-----0-----|
B|-----4-----5-----4-----3-----2-----1-----0-----2-----4-----|
G|-----0-----5-----4-----3-----2-----2-----1-----2-----4-----|
D|-----6-----5-----4-----3-----2-----2-----2-----2-----4-----|
A|-----x-----x-----x-----x-----x-----x-----2-----x-----x-----|
E|-----x-----5-----4-----3-----2-----1-----0-----2-----4-----|

Pre-Chorus:
e|-----0-----0-----0-----0-----0-----x-----0-----x-----|
B|-----7-----7-----5-----5-----4-----3-----2-----0-----|
G|-----7-----7-----5-----5-----4-----4-----2-----2-----|
D|-----7-----6-----5-----4-----4-----3-----2-----1-----|
A|-----x-----7-----x-----5-----x-----4-----x-----2-----|
E|-----7-----0-----5-----0-----4-----x-----2-----x-----|

Chorus:
 Play 2X
e|-----0-----0-----0-----0-----0-----|
B|-----0-----7-----7-----5-----5-----|
G|-----8-----7-----7-----5-----5-----|
D|-----9-----7-----6-----5-----4-----|
A|-----7-----x-----7-----x-----5-----|
E|-----0-----7-----0-----5-----0-----|

Bridge:
 Play 3X
e|-----0-----0-----|
B|-----5-----5-----|
G|-----5-----5-----|
D|-----5-----4-----|
A|-----x-----5-----|
E|-----5-----0-----|

Chorus:
 Play 2X
e|-----0-----0-----0-----0-----0-----|
B|-----0-----7-----7-----5-----5-----|
G|-----8-----7-----7-----5-----5-----|
D|-----9-----7-----6-----5-----4-----|
A|-----7-----x-----7-----x-----5-----|
E|-----0-----7-----0-----5-----0-----|

Outro:
 Play 5X, fade on 5th
e|-----0-----0-----|
B|-----0-----7-----|
G|-----8-----7-----|
D|-----9-----7-----|
A|-----7-----x-----|
E|-----0-----7-----|

-----------------------------------------------------------------------------

"So Weightless" - David Choi

Verse 1:
I only know, not everyone sees
Something there beyond the breeze
A lioness stare, blond wavy hair
Beautiful, so hard not to care

Pre-Chorus 1:
Every move I make, gets closer to you
Reach your hand out
Should I grab or should I go

Chorus:
Iím feeling so weightless
I donít know what
I donít know how
I ended up in this cloud
Iím feeling so helpless
I donít know when
I donít know how
Iím ever gonna get down

Verse 2:
I got a question can I stay for a while?
Iím liking it here but am I on file?
I just want to talk, but you seem so far
Fading away, just like a star

Pre-Chorus 2:
Before you could answer
Youíve drifted away
Left me here alone, but right now Iím feeling ok

Chorus:
Iím feeling so weightless
I donít know what
I donít know how
I ended up in this cloud
Iím feeling so helpless
I donít know when
I donít know how
Iím ever gonna get down

Bridge:
Before I know it I canít help but wonder
My friends are waiting for me but if I could just stay here
So caught up in bliss, where is my answer?

Chorus:
Iím feeling so weightless
I donít know what
I donít know how
I ended up in this cloud
Iím feeling so helpless
I donít know when
I donít know how
Iím ever gonna get down

Outro:
Feelin' so weightlessÖ Feelin' so weightlessÖ 

************************************

| /   slide up
| \   slide down
| h   hammer-on
| p   pull-off
| ~   vibrato
| +   harmonic
| x   Mute note
| b   Bend
| pb  Pre-bend
| br  Bend release
| pbr Pre-bend release
| brb Bend release bend

************************************
Tap to rate this tab
# A B C D E F G H I J K L M N O P Q R S T U V W X Y Z