Song name
# A B C D E F G H I J K L M N O P Q R S T U V W X Y Z

David Cook - I Dare You To Move tab

David Cook's version of Switchfoot's song I Dare You To Move! Amazing
song!!!!!!!! Hope you like it as much as me!!!!!

E|-------------------0-0-0-0-|
B|-12-12-----9-9-----0-0-0-0-|
G|-9--9--9-9-9-9-9-9-9-9-9-9-|
D|-11-11-9-9-9-9-9-9-7-7-7-7-|
A|---------------------------|
E|---------------------------|

(GTR2: distortion)

E|-0-0-0-0-0-0-0-0-0-0-0-0-0-0-|
B|-0-0-0-0-0-0-0-0-0-0-0-0-0-0-|
G|-9-9-9-9-9-9-9---------------|
D|-9-9-9-9-9-9-9-7-7-7-7-7-7-7-|
A|-7-7-7-7-7-7-7-7-7-7-7-7-7-7-|
E|---------------5-5-5-5-5-5-5-|

Verse: 

E|-----------------------|
B|-----------------------|
G|-----------------------|
D|-5-5-5-5-5-5-5/9-9-9-9-| (both gtrs)
A|-5-5-5-5-5-5-5/9-9-9-9-|
E|-3-3-3-3-3-3-3/7-7-7-7-|

Chorus:
E|---------------------------------------|
B|---------------------------------------|
G|-9-9-9-9-9-----------------------------|
D|-9-9-9-9-9-9-9-9-9-9-7-7-7-7-7-7-7-7-9-| x2 (2nd time end on the B)
A|-7-7-7-7-7-9-9-9-9-9-7-7-7-7-7-7-7-7-9-|
E|-0-0-0-0-0-7-7-7-7-7-5-5-5-5-5-5-5-5-7-|

(INTRO x2)

Verse 2:

E|----------------------------------------------------------------------------|
B|----------------------------------------------------------------------------|
G|----------------------------------------------------------------------------|
D|-9/11-xxxx-9/11-xxxx-9/11x7-9/11-xxxx-9/11-xxxx-9/11x7-4-4-4-xxxx-4-4-4-xxx-|
A|-9/11-xxxx-9/11-xxxx-9/11x7-9/11-xxxx-9/11-xxxx-9/11x7-4-4-4-xxxx-4-4-4-xxx-|
E|-7/9--xxxx-7/9--xxxx-7/9-x5-7/9--xxxx-7/9--xxxx-7/9-x5-2-2-2-xxxx-2-2-2-xxx-|

E|----------------------------------------------------------------------------|
B|----------------------------------------------------------------------------|
G|----------------------------------------------------------------------------|
D|x4x-7-7-7xxxx-7-7-7xxxx-7-7-7-9/11-xxxx-9/11-xxxx-9/11x7~-4-4-4xxxx4-4-4xxx-|
A|x4x-7-7-7xxxx-7-7-7xxxx-7-7-7-9/11-xxxx-9/11-xxxx-9/11x7~-4-4-4xxxx4-4-4xxx-|
E|x2x-5-5-5xxxx-5-5-5xxxx-5-5-5-7/9--xxxx-7/9--xxxx-7/9-x5~-2-2-2xxxx2-2-2xxx-|

E|--------------------------|
B|--------------------------|
G|--------------------------|
D|x-4x7-7-7xxxx-7-7-7xxxx-7-|
A|x-4x7-7-7xxxx-7-7-7xxxx-7-|
E|x-2x5-5-5xxxx-5-5-5xxxx-5-|

(to chorus)

Bridge:

E|---------------------------------------------------------------------------|
B|---------------------------------------------------------------------------|
G|-9-9-9-9-9-9-----------------9-9-9-9-9-9-----------------------------------|
D|-9-9-9-9-9-9-7-7-7-7-7-7-7-7-9-9-9-9-9-9-7-7-7-7-7-7-7-7-11-11-11-11-11-11-|
A|-7-7-7-7-7-7-7-7-7-7-7-7-7-7-7-7-7-7-7-7-7-7-7-7-7-7-7-7-11-11-11-11-11-11-|
E|-0-0-0-0-0-0-5-5-5-5-5-5-5-5-0-0-0-0-0-0-5-5-5-5-5-5-5-5-9--9--9--9--9--9--|

E|-------------------|
B|-------------------|
G|-------------------|
D|-7-7-7-7-7-7-7-9~~-|
A|-7-7-7-7-7-7-7-9~~-|
E|-5-5-5-5-5-5-5-7~~-|

Chorus: 

E|-0-0-0-0-0-0-0-0-0-0-0-0-0-0-----------------0-0-0-0-0-0-0-0-0-0-0-0-0-0-0-|
B|-0-0-0-0-0-0-0-0-0-0-0-0-0-0-2-2-2-2-2-2-2-2-0-0-0-0-0-0-0-0-0-0-0-0-0-0-0-|
G|-1-1-1-1-1-1-1-1-4-4-4-4-4-4-2-2-2-2-2-2-2-2-4-4-1-1-1-1-1-1-1-4-4-4-4-4-4-|
D|-2-2-2-2-2-2-2-2-4-4-4-4-4-4-2-2-2-2-2-2-2-2-4-4-2-2-2-2-2-2-2-4-4-4-4-4-4-|
A|-2-2-2-2-2-2-2-2-2-2-2-2-2-2-0-0-0-0-0-0-0-0-2-2-2-2-2-2-2-2-2-2-2-2-2-2-2-|
E|-0-0-0-0-0-0-0-0---------------------------------0-0-0-0-0-0-0-------------|

E|xxxx---------------------------------------------0~~|
B|xxxx-2-2-2-2-2-2-------------2-2-2-2-2-2---------0~~|
G|xxxx-2-2-2-2-2-2-------------2-2-2-2-2-2-4-4-4-4-1~~|
D|xxxx-2-2-2-2-2-2-4-4-4-4-4-4-2-2-2-2-2-2-4-4-4-4-2~~|
A|xxxx-0-0-0-0-0-0-4-4-4-4-4-4-0-0-0-0-0-0-2-2-2-2-2~~|
E|xxxx-------------2-2-2-2-2-2---------------------0~~|


lyrics:
Welcome to the planet
Welcome to existence
Everyone’s here
Everyone’s here
Everybody’s watching you now
Everybody waits for you now
What happens next
What happens next
[Chorus]
I dare you to move
I dare you to move
I dare you to lift yourself up off the floor
I dare you to move
I dare you to move
Like today never happened
Today never happened before
Welcome to the fallout
Welcome to resistance
The tension is here
Tension is here
Between who you are and who you could be
Between how it is and how it should be
[Chorus]
Maybe redemption has stories to tell
Maybe forgiveness is right where you fell
Where can you run to escape from yourself?
Where you gonna go?
Where you gonna go?
Salvation is here
I dare you to move
I dare you to move
I dare you to lift yourself up off the floor
I dare you to move
I dare you to move
Like today never happened
Today never happened
Today never happened
Today never happened before

David Cook only did that much in vocals! I love his gutiar!!!! 
e-mail me @  dolphinsrock_94@yahoo.com
or
rush4life70494@gmail.com
Leave comments please!!!!

Tap to rate this tab
 
# A B C D E F G H I J K L M N O P Q R S T U V W X Y Z