Song name
# A B C D E F G H I J K L M N O P Q R S T U V W X Y Z

David Cook - Daytripper tab

-------------------------------------------------------------------------------
			     SONG NAME - Band Name
-------------------------------------------------------------------------------
Tabbed by: iambosh

Tuning: standard
    
    This is my first tab. I am sure this is correct.
              
                             Intro
e|---------------------------------------------------------------------------|
B|---------------------------------------------------------------------------|
G|---------------------------------------------------------------------------|
D|-----------------2-0--------4------0h2-------------------2-0------4--------|
A|--------------2---------2------2---------------------2---------2-----2-----|
E|---0--0-3h4--------------------------------0--0-3h4------------------------|

e|---------------------------------------------------------------------------|
B|---------------------------------------------------------------------------|
G|---------------------------------------------------------------------------|
D|--0h2---------------2-0----4------0h2-----------------2-0-----4----0h2-----|
A|------------------2------2----2---------------------2------2----2----------|
E|--------0--0-3h4-------------------------0--0-3h4--------------------------|

e|---------------------------------------------------------------------------|
B|---------------------------------------------------------------------------|
G|---------------------------------------------------------------------------|
D|-------------------2--0----------------------------------------------------|
A|---------------2-----------------------------------------------------------|
E|---0--0-3h4----------------------------------------------------------------|
                                  Verse
e|---------------------------------------------------------------------------|
B|---------------------------------------------------------------------------|
G|---------------------------------------------------------------------------|
D|-----------------2-0------4-----------------------2-0------4----0h2--------|
A|-------------2---------2-----2----------------2---------2----2-------------|
E|---0--0-3h4------------------------0--0-3h4--------------------------------|

e|---------------------------------------------------------------------------|
B|---------------------------------------------------------------------------|
G|----------------2-0-----4-----0h2------------------------------------------|
D|-------------2-------2----2------------------------2-0-----4------0h2------|
A|----0--0-3h4------------------------------------2--------2----2------------|
E|--------------------------------------0--0-3h4-----------------------------|

     The chords to the chorus are(in this order):


    F#        A       G#      C#      B

  244322   577655   465544  x43334  x24442

    Power chord every thing. You will get the rythm by listening to the song. Thats it.

Intro x1
Verse x1
Chorus x1
Verse x1
Chorus x1
Solo w/ verse and intro(during the wah part) x1 
Chorus x1
Verse x2




Tap to rate this tab
# A B C D E F G H I J K L M N O P Q R S T U V W X Y Z