Song name
# A B C D E F G H I J K L M N O P Q R S T U V W X Y Z

David Cook - Im Alive tab

Help us improve GuitareTab! Take a short survey!
E -------------------------|
B -------------------------|
G -------------------------|  x 4
D -----------------4-------|
A ---4-6-7---4-6-7---4-6-7-|
E -------------------------|

E -------------------------|
B -------------------------|  x 2
G -----------------4-------|
D ---4-6-7---4-6-7---4-6-7-|
A -------------------------|
E -------------------------|


Chorus

A E F#M E
Related for Im Alive tab