Song name
# A B C D E F G H I J K L M N O P Q R S T U V W X Y Z

David Cook - Kiss On The Neck tab

Tuning:Drop D tuning 1/2 step down (Db Ab Db Gb Bb Eb)

INTRO:

David's guitar:
E|--------------------------------------------------------------|
B|--------------------------------------------------------------|
G|--------------------------------------------------------------|
D|--------------------------------------------5555555555555555--|(2)
A|--------------------------------------------5555555555555555--|
D|--0-0-0-0-11-11-11-11--0-0-0-0-11-11-11-11--5555555555555555--|

1rst guitar:
E|-----------------------------------------------|
B|-----------------------------------------------|
G|-18-18-18-18-18-18-19---18-18-18-18-18-18-16---|
D|-----------------------------------------------|
A|-16-16-16-16-16-16-17---16-16-16-16-16-16-14---|
D|-----------------------------------------------|

E|---------------------------------------|
B|---------------------------------------|
G|-11111111111111111111111111111111------| (2)
D|---------------------------------------|
A|-9-9-9-9-9-9-9-9-9-9-9-9-9-9-9-9-------|
D|---------------------------------------|

VERSE:

E|------------------------------|
B|------------------------------|
G|------------------------------|
D|-77777--77777--55555--55555---|(2)
A|-77777--77777--55555--55555---|
D|-77777--77777--55555--55555---|

E|---------------------------------------------------------------|
B|---------------------------------------------------------------|
G|---------------------------------------------------------------|
D|--7777777777777--5555555555555555-777777777777-5555---0-2--2---|
A|--7777777777777--5555555555555555-777777777777-5555-2------2---|
D|--7777777777777--5555555555555555-777777777777-5555--------2---|


CHORUS:

E|--------------------------------------------------------------|
B|--------------------------------------------------------------|
G|--------------------------------------------------------------|
D|--------------------------------------------5555555555555555--|(2)
A|--------------------------------------------5555555555555555--|
D|--0-0-0-0-11-11-11-11--0-0-0-0-11-11-11-11--5555555555555555--|


E|------------------------------------------------------|
B|------------------------------------------------------|
G|------------------------------------------------------|
D|--99999999999-8888888888-777777777777-66666666666--5--|
A|--99999999999-9999999999-777777777777-77777777777--5--|
D|--99999999999-8888888888-777777777777-66666666666--5--|


intro,verse,chorus...


BRIDGE:
  Bm     F#7    A     E7  Bm    F#7    A
E|---------------------------10----12-----9-----------------|
B|---3-----5-----2-----3--12----11-----10-------------------|
G|-4-----3-----2-----1--------------------------------------|
D|-------------------------------------------66666666--5----|
A|-------------------------------------------77777777--5----|
D|-------------------------------------------66666666--5----|


E|----------------------------------------------|
B|----------------------------------------------|
G|----------------------------------------------|
D|----------------------------------------------|(2)
A|----------------------------------------------|
D|--0-0-0-0-11-11-11-11--0-0-0-0-11-11-11-11----|

chorus..


OUTRO:
E|----------------------------------------------|
B|----------------------------------------------|
G|----------------------------------------------|
D|----------------------------------------------|
A|----------------------------------------------|
D|--0-0-0-0-11-11-11-11--0-0-0-0-11-11-11-11----|

E|----------------------------------------------|
B|----------------------------------------------|
G|----------------------------------------------|
D|-------------------------------------------0--|
A|-------------------------------------------0--|
D|--0-0-0-0-11-11-11-11--0-0-0-0-11-11-11-11-0--|
Tap to rate this tab
# A B C D E F G H I J K L M N O P Q R S T U V W X Y Z