Song name
# A B C D E F G H I J K L M N O P Q R S T U V W X Y Z

David Cook - My Hero tab

My Hero by: David Cook
Tabbed by: hero904 (Adan)
Tunning: Standard (e B G D A E)

I dont think it is on his album but, if you go on 
youtube you will find it. He plays it at all most all of his concerts. 

Intro
e|--0-0-0-4-4-4-4-4-4-4-4-4--|
B|--0-0-0-4-4-7-4-4-4-7-5-5--|
G|--1-1-1-4-4-4-4-4-4-4-4-4--|
D|--2-2-2-6-6-6-6-6-6-6-6-6--|
A|--2-2-2-4-4-4-4-4-4-4-4-4--|
E|--0-0-0--------------------|


Little riff 1
e|---------------|
B|---------------|
G|---------------|
D|---------------|
A|------4-2------|
E|--2-2-----4-5--|


Verse
e|--0-0-0-4-4-4-4-4-4-4-4-4-4-|-0-0-0-4-4-4-4-4-4-4-4-4--|
B|--0-0-0-4-4-4-4-4-4-4-4-4-4-|-0-0-0-4-4-7-4-4-4-7-5-5--|
G|--1-1-1-4-4-4-4-4-4-4-4-4-4-|-1-1-1-4-4-4-4-4-4-4-4-4--|
D|--2-2-2-6-6-6-6-6-6-6-6-6-6-|-2-2-2-6-6-6-6-6-6-6-6-6--|
A|--2-2-2-4-4-4-4-4-4-4-4-4-4-|-2-2-2-4-4-4-4-4-4-4-4-4--|
E|--0-0-0---------------------|-0-0-0--------------------|


Chorus
e|--------------------------------------|-------------------------------------|
B|--------------------------------------|-------------------------------------|
G|----------8-8-8-8-9-9-9-9-11-11-11-11-|---------8-8-8-8-9-9-9-9-11-11-11-11-|
D|--7-7-7-7-x-x-x-x-x-x-x-x-x--x--x--x--|-2-2-2-2-x-x-x-x-x-x-x-x-x--x--x--x--|
A|--x-x-x-x-6-6-6-6-7-7-7-7-9--9--9--9--|-2-2-2-2-6-6-6-6-7-7-7-7-9--9--9--9--|
E|--5-5-5-5-----------------------------|-0-0-0-0-----------------------------|
  (2x)

e|------------------------------------------|
B|------------------------------------------|
G|---------11-11-11-11-13-13-13-13-8-8-8-8--|
D|-2-2-2-2-x--x--x--x--x--x--x--x--x-x-x-x--|
A|-2-2-2-2-9--9--9--9--11-11-11-11-6-6-6-6--|
E|-0-0-0-0----------------------------------|


Little riff 2
e|--0-0-0-0--|
B|--4-5-4-0--|
G|--------4--|
D|-----------|
A|-----------|
E|-----------|

Bridge
e|--0-0-0-4-4-4-4-4-4-4-4-4--|
B|--0-0-0-4-4-4-4-4-4-4-4-4--|
G|--1-1-1-4-4-4-4-4-4-4-4-4--|
D|--2-2-2-6-6-6-6-6-6-6-6-6--|
A|--2-2-2-4-4-4-4-4-4-4-4-4--|
E|--0-0-0--------------------|

Outro (add this at the end of the last chorus, then little riff 1)
e|---------------------------------------------|
B|---------------------------------------------|
G|--13-13-13-13-13-13-13-13-13-13-13-13-13-13--|
D|---x--x--x--x--x--x--x--x--x--x--x--x--x--x--|
A|--11-11-11-11-11-11-11-11-11-11-11-11-11-11--|
E|---------------------------------------------|

Feel free to rate, comment, and correct.
Have fun.
Tap to rate this tab
# A B C D E F G H I J K L M N O P Q R S T U V W X Y Z