Song name
# A B C D E F G H I J K L M N O P Q R S T U V W X Y Z

David Cook - Bar-ba-sol tab

Bar-Ba-Sol – David Cook
Intro
Guitar 1:
                              |<   Repeat this part   >|  5x
E |----------------------------------------------------------|
A|-----------10------------------------10--------------------|
D|--7h8p7--7-------8p7--10--8--8p7--7--------8p7--10--8------|
G|-----------------------------------------------------------|
B|-----------------------------------------------------------|
E|-----------------------------------------------------------|

Chords for Chorus are played here for a bit…

Verse 1  - same as Intro

Pre-Chorus
Guitar 1:
“And…tight”	“Sailing all alone...it all away”
E|---3---|	|---x----x----x--------x----x----x-----x-----x----|
A |--3---|	|---8----8----6--------6----8----8-----5-----8----|
D |--5---|	|--10----10---8--------8----10---10----7-----10---|
G |--5---|	|--10----10---8--------8----10---10----7-----10---|
B|---x---|	|---x----x----x--------x----x----x-----x-----x----|
E|---x---|	|---x----x----x--------x----x----x-----x-----x----|

Chorus
Guitar 1:
E|--6---6---6---(3)---6---6---|	|---3---3---3---(1)---3---3---|
A|--6---6---6---(3)---6---6---|	|---3---3---3---(1)---3---3---|
D|--8---8---8---(5)---8---8---|	|---5---5---5---(3)---5---5---|
G|--8---8---8---(5)---8---8---|	|---5---5---5---(3)---5---5---|
B|--x---x---x---(x)---x---x---|	|---x---x---x---(x)---x---x---|
E|--x---x---x---(x)---x---x---|	|---x---x---x---(x)---x---x---|

Verse 2:
Guitar 1: Play softly with low-ish volume
E|---------------x----------------------x-------|
A|---6---6---6---6-------3----3----3----3-------|
D|---------------8----------------------5-------|
G|---------------8----------------------5-------|
B|---------------x----------------------x-------|
E|---------------x----------------------x-------|

Pre-chorus
Chorus
Solo
Guitar 1: Play intro riff until Guitar 3 stops playing, then go back to Chorus chords.
Chorus
Guitar 1: Continue to play chord til end.

**Note: This is only one of three guitars...the others will be posted later.**

Feel free to e-mail(musical_latina@hotmail.com) any corrections. I think it's pretty 
if not completely correct.
Tap to rate this tab
# A B C D E F G H I J K L M N O P Q R S T U V W X Y Z