Song name
# A B C D E F G H I J K L M N O P Q R S T U V W X Y Z

David Cook - Declaration tab

This is correct, david cook doesn't use a capo for the song Declaration

Verse

e|-----------14----------14----------12----------12----------10---------10--|
B|-----12-12----12-12-12----12-12-12----12-12-12----12-12-12----12-12-12----|
G|--------------------------------------------------------------------------|
D|--------------------------------------------------------------------------|
A|--------------------------------------------------------------------------|
E|--------------------------------------------------------------------------|

e|------------10---------12-------------------------------------------------|
B|--10-10-10----10-10-10----------------------------------------------------|
G|--------------------------------------------------------------------------|
D|--------------------------------------------------------------------------|
A|--------------------------------------------------------------------------|
E|--------------------------------------------------------------------------|

Tap to rate this tab
# A B C D E F G H I J K L M N O P Q R S T U V W X Y Z