Song name
# A B C D E F G H I J K L M N O P Q R S T U V W X Y Z

David Cook - Permanent tab

Okay, I've made this a guitar duet because on piano there bass note which are IMPOSSIBLE 
play by yourself. My friend and I played both parts together and it sounded much better.

Guitar One

e|-1------0----------1------0----------1------0----------------------------|
B|-------------------------------------------------------------------------|
G|----2-----------------2-----------------2--------------------------------|
D|-------------------------------------------------------------------------|
A|-------------------------------------------------------------------------|
E|-------------------------------------------------------------------------|


e|-1-----------------------------------------------------------------------|
B|--------2----------------------------------------------------------------|
G|-------------4-----------------------------------------------------------|
D|----4--------------------------------------------------------------------|
A|-------------------------------------------------------------------------|
E|-------------------------------------------------------------------------|

Guitar Two

e|-------------------------------------------------------------------------|
B|-------------------------------------------------------------------------|
G|-------------------------------------------------------------------------|
D|-------------------------------------------------------------------------|
A|-5-----------------3-----------------0-----------------1-----------------|
E|-------------------------------------------------------------------------|
Tap to rate this tab
# A B C D E F G H I J K L M N O P Q R S T U V W X Y Z