David Cook - Permanent tab

-------------------------------------------------------------------------------
	                  PERMANENT - David Cook
-------------------------------------------------------------------------------
Tabbed by: lilypotter56

I based this off of the piano sheet music, so it should be right.

e|-1-----0------1-----0------1-----0------1----------------------------------|
B|----------------------------------------------1----------------------------|
G|----2------------2------------2------------2-----3-------------------------|
D|-0-------------------------------------------------------------------------|
A|--------------3------------0------------1----------------------------------|
E|---------------------------------------------------------------------------|

Tap to rate this tab
 
# A B C D E F G H I J K L M N O P Q R S T U V W X Y Z