David Cook - Paper Heart tab

-----------------------------------------------------------------------------
                         PAPER HEART - David Cook
-----------------------------------------------------------------------------
Tabbed by: Claire
Email: xrocknrollchicx@yahoo.com
Tuning: Standard

From the live recordings that have been released thus far, the electric guitar is 
very clear so I think the tab is accurate. The chords are pretty close. They sound 
fine to me. (I watched David's fingers closely in the videos, but lefties throw me 
off) This is the best I got! Enjoy! :)

CHORDS USED:

   A#   G#m   *A#   D#m
e--x-----4-----6-----7--|
B--3-----4-----6-----8--|
G--3-----5-----7-----8--|
D--3-----6-----8-----8--|
A--1-----6-----8-----7--|
E--x-----4-----6-----x--|


INTRO:
A# G#m *A# A# (x4)

e|------------7-7--4-4---------7-7---------7-7--9-9----------------|
B|--------5-5--------------5-5-----7-7-------------------7-9-7-5-7-|
G|-6-6--6----------------6----------------6--------6-6-------------| x4
D|-----------------------------------------------------------------|
A|-----------------------------------------------------------------|
E|-----------------------------------------------------------------|


VERSE:   

A#            G#m                         *A#           A# 
   I can feel in the evening air all the words I want to say
              G#m                             *A#           A#
But I can tell as you turn to leave that they wouldn’t make you stay
              G#m                 *A#    A#
Overhead the lights come on and suddenly I see
               G#m		    *A#             A#
That glow is gonna guide you home wherever that may be

CHORUS:

A#       G#m                            *A#                 A#
What use is a paper heart, when you’re stuck in the rain, stuck in the rain
		    G#m			         *A#		D#m
‘Cause all the love that I hold inside; feel it washin’ away, washin’ away
         		             *A#                  G#m   A#
Let it fall, take it all, ’cause I’m so tired of feelin’ everything
	   G#m			      *A#	A#
So damn me and my paper heart in this pouring rain


VERSE:
I could watch as you fade away, but I hold on to the pain
In these arms that just let you go; on these lips that said your name
Couldn’t know it would hurt this hard to hear you close that door
So punch a hole in my paper heart ’cause I don’t need it anymore

CHORUS:
What use is a paper heart, when you’re stuck in the rain, stuck in the rain
‘Cause all the love that I hold inside; feel it washin’ away, washin’ away
Let it fall, take it all, ’cause I’m so tired of feelin’ everything
					*A#    D#m
So damn me and my paper heart in this pouring rain


BRIDGE:
D#m *A# G#m A# (x2)

e|------------------------6------------------------|
B|------8-------8-------8---6-4--3/4\3-------------|
G|-8-10----8-10----8-10----------------3-3/5-------|x2
D|-------------------------------------------------|
A|-------------------------------------------------|
E|-------------------------------------------------|

G#m                A#                          G#m  A#                       
Cause all the love that I hold inside; feel it washin' away


INTRO riff (x1)
A# G#m *A# D#m


CHORUS
Tap to rate this tab
 
# A B C D E F G H I J K L M N O P Q R S T U V W X Y Z