Song name
# A B C D E F G H I J K L M N O P Q R S T U V W X Y Z

David Cook - Right Here With You tab

Great song by David Cook from his new album. I bought the album and I tabbed this song 
later that night.  Give me a break Im only 14 years old and its my first tab.
I fell in love with this song right away.  It is a great and touching song.  I was 
having troubles in my relationship with my lovely girlfriend Julia Reed and this song caught 
my attention right away.  It made me realize dont take your relationships for 
granted, and that is the message in Davids album.   I also want to apologize to Julia for being a 
jerk and this song brought me back.  Love you Julia. And peace out at UG.


Song: Right Here, With You
Artist: David Cook
Album: This Loud Morning
Standard Tuning

Intro/Verse
e|-----------------------------------------------------------------------------------------|
B|-----------------------------------------------------------------------------------------|
G|---------------------------------------------------------------------------|whole thing--| x2
D|-------6-------------------6------------------6---------------6--------------------------|
A|---4----->x8----- ----3---------->x8------------>x8----------->x8------------------------|
E|-------------------------------------------6---------------4-----------------------------|

Pre-chorus
e|------------------------------------------------------------------------------|
B|------------------------------------------------------------------------------|
G|------------------------------------------------------------------------------|
D|--------6--------------6------------------------------------------------------|
A|---6------->x8---4------->x8--------------------------------------------------|
E|----------------------------------------(First time Only)-\12Slide down neck--|

Chorus
	Figure out the strumming by listening to the song
e|----------------------------------------------------------------------------|
B|----------------------------------------------------------------------------|
G|---6---------------5------------------------------------------|whole thing--| x2
D|---6---------------5--------------8-------------6----x-x-x------------------|
A|---4---------------3--------------8-------------6----x-x-x------------------|
E|-----------------------------------6--------------4---x-x-x-----------------|

Then Piano break
 Repeat Intro/Verse

Play Chorus

Bridge

e|---------------------------------------------------------------------------------|
B|---------------------------------------------------------------------------------|
G|--3-----6-----8-----------10----6----8----5----10-----6----8----5----------------|
D|--5-----6-----8-----------10----6----8----5----10-----6----8----5----------------|
A|--5-----4-----6------------8----4----6-----3----8------4----6----3---------------|
E|---------------------------------------------------------------------------------|



Solo
e|---9b---9h10-12p10b---10h11-13---16p14-13-15---------------------------|
B|----------------------------------------------------------16p14b-------|
G|-----------------------------------------------------------------------|
D|-----------------------------------------------------------------------|
A|-----------------------------------------------------------------------|
E|-----------------------------------------------------------------------|

Repeat Chorus with Solo over after first time though chorus
Heres the solo.  Wait for the chorus repetition to be played through and then you can wail baby!

Ending Solo
Listen to song to figure out when to play
e|--12p10-9h10-----9b---9h10-12p10b---10h11-13p11---16p14-13-15----------------------------|
B|---------------------------------------------------------------------------------16p14b--|
G|-----------------------------------------------------------------------------------------|
D|-----------------------------------------------------------------------------------------|
A|-----------------------------------------------------------------------------------------|
E|-----------------------------------------------------------------------------------------|

Play Chorus once more then
e|-------------------------|
B|-------------------------|
G|--5-----6-----8----------|
D|--5-----6-----8----------|
A|--3-----4-----6----------|
E|-------------------------|

Lead Guitar ends playing this when rhythm plays the Eb5
e|--11b(pick it a bunch of times)-----------|
B|------------------------------------------|
G|------------------------------------------|
D|------------------------------------------|
A|------------------------------------------|
E|------------------------------------------|
The end of a great song.  Its gonna be a hit song I guarantee it.
Tap to rate this tab
# A B C D E F G H I J K L M N O P Q R S T U V W X Y Z