Song name
# A B C D E F G H I J K L M N O P Q R S T U V W X Y Z

David Cook - Light On tab

-------------------------------------------------------------------------------
                             Light On - David Cook
-------------------------------------------------------------------------------
Tabbed by:danielson12
Email:

Tuning:standard

VERSE
    Am         C        G            F       E
e|---8---------8--------7------------8-------7-------------------------------|
B|-10--------10--------8-----------10-------9--------------------------------|
G|9---------9---------7--------10--------9-----------------------------------|
D|---------------------------------------------------------------------------|
A|---------------------------------------------------------------------------|
E|---------------------------------------------------------------------------|

CHORUS                                          1st ENDING OF CHORUS
       F     C    G      Dm         F      C       Am   G
e|----8------8----7------5----------8------8-------8----7------|Repeat Chorus 
B|--10-10--10-10----8--8--6--6----10-10--10-10------10---8-----|Play second 
G|10------------------7-----7---10--------------------9---9----|ending 
D|-------------------------------------------------------------|instead
A|-------------------------------------------------------------|of first
E|-------------------------------------------------------------|
 
2nd ENDING OF CHORUS
    G    E     E
e|--7----7-----7---|
B|-8----9-9---9-9--|Back to verse
G|7----9----9------|and repeat all  
D|-----------------|through chorus
A|-----------------|
E|-----------------|

SOLO
     Am       C        G       F       E   
e|---------------------------------------------------------------------------|
B|---------------------------------------------------------------------------|
G|---------------------------------------------------------------------------|
D|---------------------------------------------------------------------------|
A|---------------------------------------------------------------------------|
E|---------------------------------------------------------------------------|

BRIDGE
     D       G       Bm       Em       C        G        A         A 
e|---------------------------------------------------------------------------|Back to chorus
B|---------------------------------------------------------------------------|
G|---------------------------------------------------------------------------|
D|---------------------------------------------------------------------------|
A|---------------------------------------------------------------------------|
E|---------------------------------------------------------------------------|
************************************

| /   slide up
| \   slide down
| h   hammer-on
| p   pull-off
| ~   vibrato
| +   harmonic
| x   Mute note
| b   Bend
| pb  Pre-bend
| br  Bend release
| pbr Pre-bend release
| brb Bend release bend

************************************


Sorry There's no tabs for the solo yet!! There will be soon I was just figuring that out.(: 
And this is my first tab so sorry it's not the prettiest looking tab but I listened to the song
for over an hour and I'm pretty sure I got everything almost perfect!! I didn't put the lyrics in 
with it but if you listen along you can hear 
the part pretty well and it's easy to tell where each part is(: 
Feel free to comment!!(: 
Tap to rate this tab
 
# A B C D E F G H I J K L M N O P Q R S T U V W X Y Z