Song name
# A B C D E F G H I J K L M N O P Q R S T U V W X Y Z

David Costa Is Dead - How To Burn A Bridge tab

-------------------------------------------------------------------------------
     How To Burn A Bridge - David Costa is Dead
-------------------------------------------------------------------------------
Tabbed by: SCZabuza
Email: fpoons@gmail.com

http://www.davidcostaisdead.com/

Tuning: Standard



Verse (Clean guitar):

e|---------------------------------------9-----------------------------------|
B|-----------7------10------7------10----------7-------10--------------------|
G|---------------------------------------------------------------------------|
D|---------------------------------------------------------------------------|
A|---------------------------------------------------------------------------|
E|---------------------------------------------------------------------------|

e|---------------------------------7-----------------------------------------|
B|--------------10------------9---------9--------7---------------------------|
G|-------9--------------9----------------------------------------------------|
D|---------------------------------------------------------------------------|
A|---------------------------------------------------------------------------|
E|---------------------------------------------------------------------------|

Do this whole section 10 times, then into the chorus.



Chorus (Clean, slightly delayed):

e|--------5-(x12)--/--9-(x12)--/--10-(x4)--/--9-(x2)--/--7-(x2)--------------|
B|---------------------------------------------------------------------------|
G|---------------------------------------------------------------------------|
D|---------------------------------------------------------------------------|
A|---------------------------------------------------------------------------|
E|---------------------------------------------------------------------------|

e|--------5-(x12)--/--9-(x12)--/--10-(x4)--/--9-(x2)--/--7-(x2)--------------|
B|---------------------------------------------------------------------------|
G|---------------------------------------------------------------------------|
D|---------------------------------------------------------------------------|
A|---------------------------------------------------------------------------|
E|---------------------------------------------------------------------------|

e|------5--------5---------5-----------5----------5----------5---------------|
B|-----------7--------7----------5----------5----------5------------5--------|
G|---------------------------------------------------------------------------|
D|---------------------------------------------------------------------------|
A|---------------------------------------------------------------------------|
E|---------------------------------------------------------------------------|

e|--------5----4--4----4h5---------------------------------------------------|
B|----------------------------------5----------------------------------------|
G|---------------------------------------------------------------------------|
D|---------------------------------------------------------------------------|
A|---------------------------------------------------------------------------|
E|---------------------------------------------------------------------------|

Order:

Verse x 10
Chorus
Verse x 8
Chorus
Verse x 8
Chorus (without the 5/7 and 5/4 part)
Chorus (also without the 5/7 and 5/4 part)

| /  slide up
| \  slide down
| h  hammer-on
| p  pull-off
| ~  vibrato
| +  harmonic
| x  Mute note
===============================================================================

Tap to rate this tab
# A B C D E F G H I J K L M N O P Q R S T U V W X Y Z