Song name
# A B C D E F G H I J K L M N O P Q R S T U V W X Y Z

David Crosby - Drive My Car tab

-------------------------------------------------------------------------------
			     Two Gallants - Drive My Car
-------------------------------------------------------------------------------
Tabbed by:IndieRocke45 (Calvin Ramsey)
Email:Its_calvin@hotmail.com

Tuning:Standard

       Intro
e|------------------------------------0------0-----0-------------------------|
B|---------------------------------------------------------------------------|
G|---------------------------------------------------------------------------|
D|------------4--6--4---4h6-4------------------------------------------------|
A|---------7----------6-------6--7-------7-----7-----7-----------------------|
E|----5/7--------------------------0-------0-----0-----0---------------------|

      Then
e|---------------------------------------------------------------------------|
B|---------------------------------------------------------------------------|
G|----9999-888-999-----------------------------------------------------------|
D|----9999-888-999-----------------------------------------------------------|
A|----7777-666-777-----------------------------------------------------------|
E|---------------------------------------------------------------------------|

Just alternate afterwards
Tap to rate this tab
# A B C D E F G H I J K L M N O P Q R S T U V W X Y Z