Song name
# A B C D E F G H I J K L M N O P Q R S T U V W X Y Z

David Crowder Band - Sing Like The Saved tab

Sing Like The Saved
David Crowder Band

INTRO/SOLO
e------------------------|
b------------------------|
G------------------------|
D-------------5--7-5-----|
A-7-5---7-5---------7-5--|
E-----7----7-5-----------|

INTRO TO LIVE ALBUM
A-9-9--4-5-9-----------|
E------------5-5-3-4-5-|
(Sounds great with Wah)

Verse and Chorus
E9 to A9

E9:
e-x
b-7
G-7
D-6
A-7
E-x

A9:
e-x
b-12
G-12
D-11
A-12
E-x

Listen to song to find the rythym.

Have fun and God bless.
Tap to rate this tab
 
# A B C D E F G H I J K L M N O P Q R S T U V W X Y Z