Song name
# A B C D E F G H I J K L M N O P Q R S T U V W X Y Z

David Crowder Band - No One Like You tab

Ok so this is my first tab ever and I'm 99.9 percent sure it's completely accurate so here we go.

Tuning: Standard (Eadgbe)
Palm Mute= *
Hammeron= h
Pull off= p
Bend= ^

Intro:

|-----------------------------|
|-2--2--2-2-------------------|
|---------------4--4-3--3-3h4-|
|-----------4-4---------------|
|-----------------------------|
|-----------------------------| Play this 4 times

Verse 1

|-2--2----6--6----9---9-----7--7-|
|-2--2----6--6----9---9-----7--7-| 
|-2--2----8--8----9---9-----7--7-|
|-4--4----8--8----11--11----9--9-|
|-4--4----6--6----11--11----9--9-|
|-2--2----6--6----9---9-----7--7-| Play this twice.

Interlude:

Play intro three times and then play this the fourth time

|-------------------------|
|-2--2--2-2-----2^2^2^2^2-| <---- sustain this note for a whole measure
|-------------------------|
|-----------4-4-----------|
|-------------------------|
|-------------------------|

Verse 2

Play this starting on the second measure of this verse

|------------------------------------------------|
|------------------------------------------------|
|------------------------------------------------|
|-4--4--4--4--8--8--8--8--6--6--6--6--4--4--4--4-|
|------------------------------------------------|
|------------------------------------------------| Play three times
  *  *  *  *  *  *  *  *  *  *  *  *  *  *  *  *

Pre Chorus:

|-9-------7-------------------|
|-9-------7-------------------|
|-9-------7------10^-11-11-11-|
|-11------9-------------------|
|-11------9-------------------|
|-9-------7-------------------|

Chorus

|-2----9-----6----7-|
|-2----9-----6----7-|
|-2----9-----8----7-|
|-4----11----8----9-|
|-4----11----6----9-|
|-2----9-----6----7-| Play this twice

Play intro three times and then this

|-2/14-| <--- slide up fretboard slowly to 14th fret
|------|      sustain this note for a whole measure
|------|
|------|
|------|
|------|

Play 2nd Verse same as last time skipping the first measure

Play Chorus Twice

Solo           4th time cut this out
             |-------|
|---------14----------| play 4 times 
|11h12p11----11h12p11-|
|---------------------|
|---------------------|
|---------------------|
|---------------------|

Prechorus: Play 6 times then play this

|-------------------------|
|-------------------------|
|-10-10-10-10^11-11-11-11-|
|-------------------------|
|-------------------------|
|-------------------------|

Play Chorus 6 times Second time everything goes out except drums.

Ending           ||----|
                 \/    |
|----------------14-9-||--sustain this note and then hit this at the very end
|-11h12p11----------9-|
|----------play-----11|
|-----------4-------11|
|----------times----9-|
|----------then-----9-|
Tap to rate this tab
# A B C D E F G H I J K L M N O P Q R S T U V W X Y Z