Song name
# A B C D E F G H I J K L M N O P Q R S T U V W X Y Z

David Crowder Band - Party tab

----------------------------------------------------------------------------
			     PARTY - David Crowder Band
----------------------------------------------------------------------------
Tabbed by:insanomanthe3rd
Email:awesomebassoonist@hotmail.com

Tuning:standard

INTRO/INTERLUDES:
e|--------------------------------------------------------------------------|
B|--------------------------------------------------------------------------|
G|------------------------------------------------------------------------*-|
D|-----3-------1-3~~-3-------1----------------------------------------------|
A|---------1h3-----------1h3---3p1----------------------------------------*-|
E|-1-1---1-------------1-----------1----------------------------------------|
this is the guitar part i use at my church after the vocal solo in the beginning.  it's 
EXACTLY what they do, but i've had no complaints from our youth group.

all verses:
    no real "strum pattern", but these are the chords for verses/choruses/bridge
    Fsus  Bbsus
e|--------------------------------------------------------------------------|
B|--------------------------------------------------------------------------|
G|---------3----------------------------------------------------------------|
D|--3------3----------------------------------------------------------------|
A|--3------1----------------------------------------------------------------|
E|--1-----------------------------------------------------------------------|

solo:  repeat twice first time you play it...last time is during the last chorus, also 
twice.
e|-------------------------------------------------------------------------|
B|-1--1--1--------------1------------------------------------------------*-|
G|-3^-3^-3^p1-1h3~~-3-1-3^p1-----------------------------------------------|
D|-----------3--------------3----------------------------------------------|
A|-----------------------------------------------------------------------*-|
E|-------------------------------------------------------------------------|

Lyrics:

We're gonna party...
I can feel it down inside,
Party!
I was dead now I'm alive...

*clapping beat*
(guitar riff intro)

Verse 1:
Gonna outshout the heavens now,
Gonna sing loud and drown the seas out...
Gonna celebrate the life I've found,
I've found...I'm found.

I was blind but now I see,
I was lost but he rescued me...
He saved the day and set his captives free,
Set me free!

[chorus]
We're gonna party!
I can feel it down inside!
Party!
I was dead now I'm alive!

(guitar riff)

verse 2: same thing as verse 1

[chorus]
(solo)

Bridge:
Anybody feel like dancin?
Anybody feel like, singin' along?
Anybody feel like shoutin'?
Anybody feelin' a party goin on?!
(repeat, getting louder)

[chorus]

End:
Party!
Party!
Party!
Party!
(solo during this)


| /  slide up
| \  slide down
| h  hammer-on
| p  pull-off
| ~  vibrato
| +  harmonic
| x  Mute note
============================================================================
Tap to rate this tab
# A B C D E F G H I J K L M N O P Q R S T U V W X Y Z