Song name
# A B C D E F G H I J K L M N O P Q R S T U V W X Y Z

David Crowder Band - O Praise Him tab

Help us improve GuitareTab! Take a short survey!
Here's a solo for the song in case you wanted to know:

e------------------------------------|
B------------13~~~~12~~~~13p12-------|
G--12---14---------------------14p12-|   (3x)
D------------------------------------|
A------------------------------------|
E------------------------------------|

e--------------------------------12-12-14-14-15-|
B--------------12-12-13-13-15-15----------------|
G--12-12-14-14----------------------------------|
D-----------------------------------------------|
A-----------------------------------------------|
E-----------------------------------------------|

e--15---17---20~~~~19~~~~20p19-17\15-|
B------------------------------------|
G------------------------------------|
D------------------------------------|   (3x)
A------------------------------------|
E------------------------------------|

e--15~~~17~~~17-15----------17~~~17-15-------|
B------------------17-15~~~~-----------17~~~-|
G--------------------------------------------|
D--------------------------------------------|
A--------------------------------------------|
E--------------------------------------------|

p= pull-off
~= hold note
\= slide down
Related for O Praise Him tab