Song name
# A B C D E F G H I J K L M N O P Q R S T U V W X Y Z

David Crowder Band - Alleluia Sing tab

----------------------------------------------------------------------------
			     Alleluia Sing - David Crowder Band (DCB)
----------------------------------------------------------------------------
Tabbed by:Richard Tabor
Email:rtabor7@gmail.com

Tuning:Standard

(0:58-1:30)
e|--------------------------------------------------------------------------|
B|----11-11-11-11p10--------------------------------------------------------|
G|-------------------10-----------------------------------------------------|
D|----------------------12~-----10-10-----10-10h12~-------------------------|
A|--------------------------------------------------------------------------|
E|--------------------------------------------------------------------------|


e|--------------------------------------------------------------------------|
B|----11-11-11-11p10--------------------------------------------------------|
G|-------------------10-----------------------------------------------------|
D|----------------------12~-----10-10-----10-10s/12  10/8-8~----- ----------|
A|--------------------------------------------------------------------------|
E|--------------------------------------------------------------------------|

REPEAT THE WHOLE THING 2 1/2 TIMES.  THEN IT BREAKS INTO THE CHORUS

(THEN IT CHANGES SLIGHTLY)

AFTER CHORUS/ 2nd VERSE:
(2:05)

e|-----------------------------------------------------------------------------|
B|----11-11-11-11p10--------------11-11-11-11p10-------------------------------|
G|-------------------10-----------------------------1010h12-------------------|
D|----------------------12~--------------------------------------- ------------|
A|-----------------------------------------------------------------------------|
E|-----------------------------------------------------------------------------|


e|--------------------------------------------------------------------------|
B|----11-11-11-11p10--------------------------------------------------------|
G|-------------------10-----------------------------------------------------|
D|----------------------12~-----10-10-----10-10s/12  10/8-8~----- ----------|
A|--------------------------------------------------------------------------|
E|--------------------------------------------------------------------------|


e|-----------------------------------------------------------------------------|
B|----11-11-11-11p10--------------11-11-11-11p10-------------------------------|
G|-------------------10-----------------------------1010h12-------------------|
D|----------------------12~--------------------------------------- ------------|
A|-----------------------------------------------------------------------------|
E|-----------------------------------------------------------------------------|


e|----------------------------------------------------------------------------|
B|----11-11-11-11p10----------------------------------------------------------|
G|-------------------10-------------------------------------------------------|
D|----------------------12~-----10-10-----10-10h12~--GOES INTO CHORUS---------|
A|----------------------------------------------------------------------------|
E|----------------------------------------------------------------------------|


| /  slide up
| \  slide down
| h  hammer-on
| p  pull-off
| ~  vibrato
| +  harmonic
| x  Mute note
===============================================================================
Tap to rate this tab
 
# A B C D E F G H I J K L M N O P Q R S T U V W X Y Z