Song name
# A B C D E F G H I J K L M N O P Q R S T U V W X Y Z

David Crowder Band - O Praise Him tab

----------------------------------------------------------------------------
			O Praise Him - David Crowder Band (DCB)
----------------------------------------------------------------------------
Tabbed by:Richard Tabor
Email:rtabor7@gmail.com

Tuning:Standard
CAPO: 3rd Fret
ALL TABS AND NOTES ARE NOT RELEVANT TO CAPO 3

I found and drafted these tabs based on videos of DC*B and listening to
the song multiple, multiple times, but I love it so it wasínt too hard.
For the chords, I took three different versions that all had great aspects
of them, and added them together, with a little of my input.  Thanks,
hope you like it and feel free to shoot me an email or comment for
suggestions.  God Bless!


INTRO
G

1ST VERSE
G			   G/F#	    		   C2
Turn your ear to heaven and hear the noise inside

G				     G/F#
The sound of angels' awe, the sound of angels' songs

C2				 Am7					C2
All this for a king, we could join and sing, all to Christ the King


(PLAY WITH THE VERSE ABOVE)
(0:38-0:58) (NOT RELEVANT TO CAPO)
e|----------------------------------------------------------------------------|
B|----------------------------------------------------------------------------|
G|-5~~~~~----7----5~~~~~~ 5~~~~----7----5---5s/8~~------7s/5~~~~--7s/8~~------|
D|----------------------------------------------------------------------------|
A|----------------------------------------------------------------------------|
E|----------------------------------------------------------------------------|

OR

YOU CAN DO IT ON THE HIGHER FRET NUMBERS (ITíS THE SAME THING BUT
EASIER TO MATCH WITH THE NEXT PART I TABBED, ALTHOUGH THEREíS A LOWER
PART FOR THAT AS WELL) FOR ALL THESE SLIDES, HIT THE NOTE, THEN SLIDE
AND HIT THE END NOTE.  THEY ARE SLOW SLIDES SO IT SOUNDS REAL NICE.

(0:38-0:58) Leading up to the next guitar part.
e|----------------------------------------------------------------------------|
B|----------------------------------------------------------------------------|
G|-10~~~---12----10~~~ 10~~~~----12----10---10s/13~~----12s/10~~-12s/13-------|
D|----------------------------------------------------------------------------|
A|----------------------------------------------------------------------------|
E|----------------------------------------------------------------------------|


PRE-CHORUS
D		  	  C2		D			   C2
How constant, how divine, this song of ours will rise
D			  C2		   D				C2
O, how constant, how divine, this love of ours will rise, will rise


(PLAY WITH THE PRE-CHORUS ABOVE)
(0:58-1:19) And also at (3:16-3:41) (AGAIN, NOT RELEVANT TO CAPO)
e|----------------------------------------------------------------------------|
B|----10-10-10-10-11-11-11-11-13-13-13-13-------------------------------------|
G|------------------------------------------12-12-12/s10----------------------|
D|----------------------------------------------------------------------------|
A|----------------------------------------------------------------------------|
E|----------------------------------------------------------------------------|

e|-----------------------------------------------------------------------------|
B|----10-10-10-10-11-11-11-11-13-13-13-13--------------------------------------|
G|------------------------------------------12-12-12-12-12-12-12-(faster)------|
D|-----------------------------------------------------------------------------|
A|-----------------------------------------------------------------------------|
E|-----------------------------------------------------------------------------|


1st CHORUS
G	    D/F#  	              Em7              Am7      A7sus
O Praise Him, O praise Him, He is Holy, He is Holy

2nd VERSE     (JUST TAB AROUND IN THESE CHORDS FOR THIS VERSE AND ITíLL SOUND GREAT)
G			   G/F#	    		   C2
Turn your gaze to heaven and raise a joyous noise
	G				         G/F#
The sound of salvation come, the sound of rescued ones
C2				 Am7	A7sus                      (THEN SLIDE bottom two fingers
All this for a king, angels join to sing, all for Christ our King   on A7sus to the 8th Fret)


2nd CHORUS
G	       D/F#		   Em7    Am7  A7sus    (THEN SLIDE bottom two fingers 
O Praise Him, O praise Him, He is Holy, He is Holy       on A7sus to the 8th Fret)

G	      D/F#		   Em7   Am7  A7sus    (THEN SLIDE bottom two fingers
O Praise Him, O praise Him, He is Holy, He is Holy       on A7sus to the 8th Fret)


GUITAR SOLO/INTERLUDE

JUST CONTINUE THE CHORUS ABOVE CHORDS AND FOLLOW THE TAB BELOW
FOR THE SOLO.  DO IT A FEW TIMES, (LISTEN TO THE SONG, AND ADD IN
NOTES FOR THE END OF EACH 2ND TIME FOR ADDED EFFECTS :

e|----------------------------------------------------------------------------|
B|---11~~-11~~s/16~~-16~~s/15~~-15s~~s/14~~s/13~s/12~-------------------------|
G|----------------------------------------------------------------------------|
D|----------------------------------------------------------------------------|
A|----------------------------------------------------------------------------|
E|----------------------------------------------------------------------------|


THEN REPEAT THE PRE-CHORUS NOTES FROM WAY ABOVE AND A FEW MORE CHORUS
AND YOU FINALLY HAVE A FULL TAB OF OíPRAISE HIM, A REMARKABLE WORSHIP SONG.
GOD BLESS!
Tap to rate this tab
# A B C D E F G H I J K L M N O P Q R S T U V W X Y Z