Song name
# A B C D E F G H I J K L M N O P Q R S T U V W X Y Z

David Crowder Band - Oh Happiness tab

This is the synth intro (it is also played in the chorus).

It is transcribed for guitar for if you are only an acoustic or you have an extra 
guitar but no synth.


e|------------0------------|
b|-------2--3---3--2--0----|
g|-2---------------------2-|
d|-----4-------------------|
a|-------------------------|
e|-------------------------|

Alternate:

e|------------------------------|
b|------------------------------|
g|------------------------------|
d|-7---4-11--12-14-12--11--9--7-|
a|------------------------------|
e|------------------------------|
Tap to rate this tab
 
# A B C D E F G H I J K L M N O P Q R S T U V W X Y Z