Song name
# A B C D E F G H I J K L M N O P Q R S T U V W X Y Z

David Crowder Band - God Almighty None Compares tab

  EL CORO ES A#  C#  F  G#

les Dejo Todo Lo Ke Es El Solo qe comienza en
 4:52
E----------------------------------------------------------------|
B----------------------------------------------------------------|
G----------------------------------------------------------------|
D-----------------------------------------------8-6-4-6-8-6-8-10-|
A---1-0-1-3-1-3-4-3-4-6-11-9-8-6-8-6-4-6-3-4-3-------------------|
E----------------------------------------------------------------|

E----------------------------------|
B----------------------------------|
G----------------------------------|   1era Parte Solo Ascendente
D-8-10-11-15-13-11-1O-11-10-8-10-8-|
A----------------------------------|
E----------------------------------|

Esta parte comienza en 5:15
E-----------------6-6-6-4----------------------------------|
B-------------------------7-6-4----------------------------|
G-------------------------------6-5----3-------------------|
D-----------------------------------5----------------------|
A----------------------------------------------------------|
E-6-6-6-6-6-6-6-----------------------------6-6-6-6-6-6-6--|


E-18-18-18-16-------------------------------------------------------|
B-------------19-18-16--------------11-11-11-9----------------------|
G----------------------18-17----15--------------11-10-8-------------|
D----------------------------17-------------------------11-10----8--|
A-------------------------------------------------------------10----|
E-------------------------------------------------------------------|


E----------------------------------------------------|
B----------------------------------------------------|
G-3-3-3-1--------------------------------------------|
D---------4-3-1--------------------------------------|
A---------------4-3---1--1-1-0-1-0-1-0-1-1-0-1-0-1-0-|
E-------------------3--------------------------------|

Al terminar esta parte vuelves A COMENZAR CON LA PRIMERA PARTE ASCENDENTE para terminar 
lo siguiente.

     6:21                                       6:28
E-----------------------------|           E--------------------------|
B-----------------------------|           B--------------------------|
G-----------------------------|           G -------------------------|
D-----------------------------| x4  Final D--------------------------|
A-1-1-0-1-0-1-0-1-1-0-1-0-1-0-|           A-1-3-4-8--1-1-0-1-0-1-0-1-|
E-----------------------------|           E--------------------------|
Tap to rate this tab
# A B C D E F G H I J K L M N O P Q R S T U V W X Y Z