Song name
# A B C D E F G H I J K L M N O P Q R S T U V W X Y Z

David Crowder Band - Like A Lion tab

I noticed that the only other tab that was up so far had some wrong chords
in the intro and verse so I decided to correct it.

Standard Tuning

CAPO 4

Intro Guitar 1:

e------------------------------------------------------|
B----3---3--3-----3---3--3-----3---3--3----3---3--3----|
G---0---0--------2---2--------0---0-------0---0--------|
D--2---2---2----0---0---0------------------------------|
A------------------------------------------------------|
E----------------------------3---3---3---3---3---3-----| Repeat several times

Guitar 2:
e-----------------------------------------------------------|
B---3-3-3-----------3-3-3-----------------------------------|
G---------4-4-4-4-4-----------------------------------------|
D-------------------------4-4-4-4-4-4/5-5-5-5-5-5-5-5-5-5-5-|
A-----------------------------------------------------------|
E-----------------------------------------------------------|  Repeat this also

Guitar 3:
These are the chords played, listen for the strum pattern

e--0----(2)----3-----------------------------------------------|
B--0-----3-----3-----------------------------------------------|
G--0-----2-----0--x2-------------------------------------------|
D--2-----0-----0-----------------------------------------------|
A--2-----0-----2-----------------------------------------------|
E--0-----0-----3-----------------------------------------------|


Here is the chord chart for the song

Intro: G,D x2

Verse:
Em              D                  G
   Let love explode and bring the dead to life
Am            G                 C
   A love so bold to see a revolution somehow.
Em              D                  G
   Let love explode and bring the dead to life
Am            G                  C
   A love so bold to bring a revolution somehow.


Pre-Chorus
D                         Em
  Now I'm lost in your freedom
D               C
  Oh This world I'll overcome.

Chorus: x4
D
My God is not dead

He's surely alive

     Em
And He's living on the inside

Roaring like a lion

Intro

Verse 2:  x2
Em           D                  G
   Let hope arise and make the darkness hide
Am             G                    C
   My faith is dead, I need a resurrection somehow

Pre-Chorus

Chorus

Intro

Bridge:
G, D/F#, Em, C

           G              D/F#
Let Heaven roar and fire fall
                   Em
come shake the ground
                   Am
with the sound of revival

           G              D/F#
Let Heaven roar and fire fall
                   Em
come shake the ground
                   C
with the sound of revival


Chorus

Intro/Outro


The only one I'm not sure about is the C in the verse, but I think it just
sounds weird because It's played with a Capo, but transposed it's probably
the same. Thats it, peace.
Tap to rate this tab
# A B C D E F G H I J K L M N O P Q R S T U V W X Y Z