Song name
# A B C D E F G H I J K L M N O P Q R S T U V W X Y Z

David Crowder Band - Foreverandever Etc tab

Foreverandever Etc. - David Crowder Band
Tabbed by jmp2609
Standard Tuning, No Capo

Note: In this tab, the tilde (~) symbol means to sustain, not vibrato,
although I guess you really could if you wanted to.
This tab took me several weeks to transcribe and although it's probably nowhere near 
I know it works and is very good. I played it live at church and it was great!


PLEASE RATE THIS TAB, IT IS MY FIRST AND I REALLY WANT YOUR THOUGHTS!


     Intro:
     (Harmonize with lead in the Extras section at the end of this tab)
     A#       D#       A#       D#       A#       D#       A#
e---|--------|--------|--------|--------|--------|--------|--------|
B---|33333333|44444444|33333333|44444444|33333333|44444444|33333333|
G---|33333333|33333333|33333333|33333333|33333333|33333333|33333333|
D---|--------|--------|--------|--------|--------|--------|--------|
A---|--------|--------|--------|--------|--------|--------|--------|
E---|--------|--------|--------|--------|--------|--------|--------|
          Verse 1:
          Love so incredible...
 D#       A#       D#       A#       D#       A#       D#
|--------|1-1-1-1-|33333333|1-1-1-1-|33333333|1-1-1-1-|33333333|
|44444444|3-3-3-3-|44444444|3-3-3-3-|44444444|3-3-3-3-|44444444|
|33333333|3-3-3-3-|33333333|3-3-3-3-|33333333|3-3-3-3-|33333333|
|--------|3-3-3-3-|--------|3-3-3-3-|--------|3-3-3-3-|--------|
|--------|1-1-1-1-|--------|1-1-1-1-|--------|1-1-1-1-|--------|
|--------|1-1-1-1-|--------|1-1-1-1-|--------|1-1-1-1-|--------|


 A#       D#       A#       D#       A#       D#       A#
|1-1-1-1-|33333333|1-1-1-1-|33333333|1-1-1-1-|33333333|1-1-1-1-|
|3-3-3-3-|44444444|3-3-3-3-|44444444|3-3-3-3-|44444444|3-3-3-3-|
|3-3-3-3-|33333333|3-3-3-3-|33333333|3-3-3-3-|33333333|3-3-3-3-|
|3-3-3-3-|--------|3-3-3-3-|--------|3-3-3-3-|--------|3-3-3-3-|
|1-1-1-1-|--------|1-1-1-1-|--------|1-1-1-1-|--------|1-1-1-1-|
|1-1-1-1-|--------|1-1-1-1-|--------|1-1-1-1-|--------|1-1-1-1-|
                            Pre-chorus 1:
                            I think I'm on the brink...
 D#       A#       D#       F5  A#5  F5 A#5/C5 F5 A#5  G5/A5/A#5/C5
|33333333|1-1-1-1-|33333333|--------|--------|--------|-----------|
|44444444|3-3-3-3-|44444444|--------|--------|--------|-----------|
|33333333|3-3-3-3-|33333333|----3---|----3/5-|----3---|-----------|
|--------|3-3-3-3-|--------|3---3---|3---3/5-|3---3---|5/7/8/10---|
|--------|1-1-1-1-|--------|3---1---|3---1/3-|3---1---|5/7/8/10---|
|--------|1-1-1-1-|--------|1-------|1-------|1-------|3/5/6/8----|
 Chorus:
 I'm finding everything I'll ever need...
 A#5      C5       G5       D#5      A#5      F5       D#5
|--------|--------|--------|--------|--------|--------|--------|
|--------|--------|--------|--------|--------|--------|--------|
|33333333|55555555|--------|88888888|33333333|--------|88888888|
|33333333|55555555|55555555|88888888|33333333|33333333|88888888|
|11111111|33333333|55555555|66666666|11111111|33333333|66666666|
|--------|--------|33333333|--------|--------|11111111|--------|
                                                       Verse 2:
              I am Yours...                            Love so
 D#5               A#5                                 A#
|--------|--------|--------|--------|--------|--------|1-1-1-1-|
|--------|--------|--------|--------|--------|--------|3-3-3-3-|
|88888888|88888888|3~~~~~~~|--------|--------|--------|3-3-3-3-|
|88888888|88888888|3~~~~~~~|--------|--------|--------|3-3-3-3-|
|66666666|66666666|1~~~~~~~|--------|--------|--------|1-1-1-1-|
|--------|--------|--------|--------|--------|--------|1-1-1-1-|

 Indelible...
 D#       A#       D#       A#       D#       A#       D#
|33333333|1-1-1-1-|33333333|1-1-1-1-|33333333|1-1-1-1-|--------|
|44444444|3-3-3-3-|44444444|3-3-3-3-|44444444|3-3-3-3-|sudden--|
|33333333|3-3-3-3-|33333333|3-3-3-3-|33333333|3-3-3-3-|pause---|
|--------|3-3-3-3-|--------|3-3-3-3-|--------|3-3-3-3-|here----|
|--------|1-1-1-1-|--------|1-1-1-1-|--------|1-1-1-1-|--------|
|--------|1-1-1-1-|--------|1-1-1-1-|--------|1-1-1-1-|--------|


 A#       D#       A#       D#       A#       D#       A#
|1-1-1-1-|33333333|1-1-1-1-|33333333|1-1-1-1-|33333333|1-1-1-1-|
|3-3-3-3-|44444444|3-3-3-3-|44444444|3-3-3-3-|44444444|3-3-3-3-|
|3-3-3-3-|33333333|3-3-3-3-|33333333|3-3-3-3-|33333333|3-3-3-3-|
|3-3-3-3-|--------|3-3-3-3-|--------|3-3-3-3-|--------|3-3-3-3-|
|1-1-1-1-|--------|1-1-1-1-|--------|1-1-1-1-|--------|1-1-1-1-|
|1-1-1-1-|--------|1-1-1-1-|--------|1-1-1-1-|--------|1-1-1-1-|
          Pre-chorus 2:      Chorus:
          Maybe like a match... I'm finding everything...
 D#       F5  A#5  F5 A#5/C5 A#5     C5       G5       D#5
|33333333|--------|--------|--------|--------|--------|--------|
|44444444|--------|--------|--------|--------|--------|--------|
|33333333|----3---|----3/5-|33333333|55555555|--------|88888888|
|--------|3---3---|3---3/5-|33333333|55555555|55555555|88888888|
|--------|3---1---|3---1/3-|11111111|33333333|55555555|66666666|
|--------|1-------|1-------|--------|--------|33333333|--------|


 A#5      F5       D#5               A#5      C5       G5
|--------|--------|--------|--------|--------|--------|--------|
|--------|--------|--------|--------|--------|--------|--------|
|33333333|--------|88888888|88888888|33333333|55555555|--------|
|33333333|33333333|88888888|88888888|33333333|55555555|55555555|
|11111111|33333333|66666666|66666666|11111111|33333333|55555555|
|--------|11111111|--------|--------|--------|--------|33333333|


 D#5      A#5      F5       D#5
|--------|--------|--------|--------|--------|--------|--------|
|--------|--------|--------|--------|--------|get-----|--------|
|88888888|33333333|--------|88888888|88888888|your----|--------|
|88888888|33333333|33333333|88888888|88888888|whistle-|--------|
|66666666|11111111|33333333|66666666|66666666|on------|--------|
|--------|--------|11111111|--------|--------|--------|--------|

                                        I am Yours forever
                                                       A#5
|--------|--------|--------|--------|--------|--------|--------|
|--------|--------|--------|--------|--------|--------|--------|
|--------|--------|--------|--------|--------|--------|33333333|
|--------|--------|--------|--------|--------|--------|33333333|
|--------|--------|--------|--------|--------|--------|11111111|
|--------|--------|--------|--------|--------|--------|--------|


 C5       G5       D#5      A#5      F5       D#5
|--------|--------|--------|--------|--------|--------|--------|
|--------|--------|--------|--------|--------|--------|--------|
|55555555|--------|88888888|33333333|--------|-XX8-XX8|-XX8-XX8|
|55555555|55555555|88888888|33333333|33333333|-XX8-XX8|-XX8-XX8|
|33333333|55555555|66666666|11111111|33333333|-XX6-XX6|-XX6-XX6|
|--------|33333333|--------|--------|11111111|--------|--------|


 A#5      C5       G5       D#5      A#5      F5       D#5
|--------|--------|--------|--------|--------|--------|--------|
|--------|--------|--------|--------|--------|--------|--------|
|33333333|55555555|--------|88888888|33333333|--------|88888888|
|33333333|55555555|55555555|88888888|33333333|33333333|88888888|
|11111111|33333333|55555555|66666666|11111111|33333333|66666666|
|--------|--------|33333333|--------|--------|11111111|--------|
                            Bridge:
              I am Yours Forever and ever...
D#5                         A#5      D#5      G5       D#5
|--------|--------|--------|--------|--------|--------|--------|
|--------|--------|--------|--------|--------|--------|--------|
|88888888|--------|--------|33333333|88888888|--------|88888888|
|88888888|--------|--------|33333333|88888888|55555555|88888888|
|66666666|--------|--------|11111111|66666666|55555555|66666666|
|--------|--------|--------|--------|--------|33333333|--------|
(Note: Pitch of the forevers does not change here, all sung the same.
A lot of people like to sing them at different pitches, which is not
done in the recording. But if you really want to, go ahead.)
                   Forever           Forever           Forever
 A#5      D#5      G5       D#5      A#5      D#5      G5
|--------|--------|--------|--------|--------|--------|--------|
|--------|--------|--------|--------|--------|--------|--------|
|33333333|88888888|--------|88888888|33333333|88888888|--------|
|33333333|88888888|55555555|88888888|33333333|88888888|55555555|
|11111111|66666666|55555555|66666666|11111111|66666666|55555555|
|--------|--------|33333333|--------|--------|--------|33333333|

          Forever
 D#5      A#5      D#5      G5       D#5      A#5
|--------|--------|--------|--------|--------|--------||
|--------|--------|--------|--------|--------|--------||
|88888888|33333333|88888888|--------|88888888|3~~~~~~~||
|88888888|33333333|88888888|55555555|88888888|3~~~~~~~||
|66666666|11111111|66666666|55555555|66666666|1~~~~~~~||
|--------|--------|--------|33333333|--------|--------||

Extras:

Lead Intro:                 On 4th time replace last measure with this:

|--------|--------|          --------|
|3-3-3-3-|44434346|          4443431-|
|-3-3-3-3|--------|<-4 times -------3|
|--------|--------|          --------|
|--------|--------|          --------|
|--------|--------|          --------|

Chorus Whistle:

|--------|--------|--------|--------|--------|--------|--------|
|33334-3-|1-------|33334-3-|1-------|33334-3-|1---4-3-|1---4-3-|
|--------|-33-----|--------|-33-----|--------|-33-----|-33-----|
|--------|--------|--------|--------|--------|--------|--------|
|--------|--------|--------|--------|--------|--------|--------|
|--------|--------|--------|--------|--------|--------|--------|

|--------|
|1-------|
|-33-----|
|--------|
|--------|
|--------|

Bass Verse:

|--------|--------|
|--00--00|--11--11|
|11--11--|11--11--|
|--------|--------|

Bass Bridge:

|--------|--------|--------|--------|
|--------|11111111|--------|11111111|
|11111111|--------|--------|--------|
|--------|--------|33333333|--------|
Tap to rate this tab
 
# A B C D E F G H I J K L M N O P Q R S T U V W X Y Z