Song name
# A B C D E F G H I J K L M N O P Q R S T U V W X Y Z

David Crowder Band - Oh Happiness tab

Alrighty! This is actually the synth part. But I decided to tab it out just in case 
needs it. In the beginning it's just the synth and then carries through the chorus. I hope 
helps! Enjoy!


e|----------------------------------|
b|----------2--3-5-3--2-------------|
g|----2------------------4-2--------|
d|--------4------------------4-2----|
a|----------------------------------|
e|----------------------------------|


e|----------------------------------|
b|----------2--3-5-3--2-------------|
g|----2------------------4-4-4-4----|
d|--------4-------------------------|
a|----------------------------------|
e|----------------------------------|


This is my first tab, so please rate it! Thanks again! Have fun!
Tap to rate this tab
 
# A B C D E F G H I J K L M N O P Q R S T U V W X Y Z