Guitaretab - guitar tabs
Song name
# A B C D E F G H I J K L M N O P Q R S T U V W X Y Z

David Crowder Band - Come Thou Fount tab

Song: Come Thou Fount
Artist: David Crowder Band
Tabbed By: cghill
Tuning:Standard


Today I transcribed the flute in this song into guitar.  Even though this tab is listed 
as the intro, the flute is played throughout the song, so you can use this as you see fit.



e---------------------------------------------------------------|
B---------------------------------/14---------------------------|
G-13-----------13-16--------13-16-----16-11/13------------------|
D----16-14-14--------16-16---------------------16-14------------|
A---------------------------------------------------------------|
E---------------------------------------------------------------|
(in the intro this is played once, other times is played twice)

[ Tab from: http://www.guitaretab.com/d/david-crowder-band/275952.html ]
e---------------------------------------------------------------|
B----14-16-17--16--14----14--------------14-16-17--16--14----17-|
G-16------------------16----16--13----16------------------16----|
D---------------------------------------------------------------|
A---------------------------------------------------------------|
E---------------------------------------------------------------|


e-14/16-14-------14/16-19-14-14--14/16-19-21-19-14/16-14--------|
B----------17-17-----------------------------------------17-----|
G---------------------------------------------------------------|
D---------------------------------------------------------------|
A---------------------------------------------------------------|
E---------------------------------------------------------------|

This is my first tab, so be gentle and rock on!
Related for Come Thou Fount tab
Come Thou Fount chords by David Crowder Band